Song name
# A B C D E F G H I J K L M N O P Q R S T U V W X Y Z

Pantera - Becoming tab

Guitar: 6 Strings
Tuning: d# A# F# C# G# D#
Key:
 * Pinch Harmonic
 ~ Vibrato
 / Slide Up
 \ Slide Down
 - Palm Mute
 w Whammy
 h Hammer-On
 p Pull-Off

Intro-Riff:

d#|-------------------------------------------|
A#|-------------------------------------------|
F#|-------------------------------------------|
C#|-------------------------------------------|
G#|5-5-5---5-5-5---5-5-5--5-5-5---5-5-5---5-5-|
D#|5-5-5---5-5-5---5-5-5--5-5-5---5-5-5---5-5-|

Riff-1:

d#|-------------------------------------|
A#|-------------------------------------|
F#|----4-------------------4------------|
C#|-------------------------------------|
G#|2-2---(5)\2-2---(5)\2-2---(5)\2-4-5--|
D#|0-0---(3)\0-0---(3)\0-0---(3)\0-2-3--|
       w                   w

Riff-2:

d#|-------------------------------------|
A#|-------------------------------------|
F#|-------------------------------------|
C#|-------------------------------------|
G#|2-2---1p0h1-2---1p0h1-2---1p0h1-4-5--|
D#|0-0---0---0-0---0---0-0---0---0-2-3--|


Verse: Riff-2 x 4 + Riff-1 x 4

Chorus:

d#|----------------------------------------------------------|
A#|----------------------------------------------------------|
F#|----------------------------------------------------------|
C#|---------7---------------------7-----------------7--------|
G#|/9-7-3-2-5-----------------3-2-5--------/9-7-3-2-5--------|
D#|/7-5-1-0-5--------/-7-6-5~-1-0-5--------/7-5-1-0-5--------|
        ---                *  ---               ---

d#|------------------------------------------|
A#|------------------------------------------|
F#|------------------------------------------|
C#|-------------7----------------------------|
G#|---------3-2-5--------5-5-5---5-5-5---5-5-|
D#|/-7-6-5~-1-0-5--------5-5-5---5-5-5---5-5-|
         *  ---

Outro: Riff-1 x 4 + Riff below x 2

d#|--------------------------|
A#|--------------------------|
F#|--------------------------|
C#|--------------------------|
G#|2-2---2-2---2-2---2-4-5---|
D#|0-0---0-0---0-0---0-2-3---|
Tap to rate this tab
# A B C D E F G H I J K L M N O P Q R S T U V W X Y Z