Guitaretab - guitar tabs
Song name
# A B C D E F G H I J K L M N O P Q R S T U V W X Y Z

Pantera - Good Friends And A Bottle Of Pills tab

                  "Good Friends and a Bottle of Pills"

                             by: Pantera


            Tabbed by: Ori Wallenstein 


Tune down all string 1/2 a tone.

Riff 1 -

Guitar 1
    /----Palm Mute-------------------------------\
D#-|----------------------|----------------------|
A#-|----------------------|----------------------|
F#-|----------------------|----------------------|
C#-|----------------------|----------------------|
G#-|-2-2-2----X----X----X-|-2-2-2----X-----------|
D#-|-0-0-0----X----X----X-|-0-0-0----X-----------|
   |                                             |
   |                                             |
Guitar 2                                         |
D#-|----------0/---0/-----|-0/-------------------|
A#-|----------0/---0/-----|-0/-------------------|
F#-|----------0/---0/-----|-0/-------------------|
C#-|----------------------|----------------------|
G#-|----------------------|----------------------|
D#-|----------------------|----------------------|

[ Tab from: http://www.guitaretab.com/p/pantera/42476.html ]
Guitar 1
    /----Palm Mute-------------------------------\
D#-|----------------------|----------------------|
A#-|----------------------|----------------------|
F#-|----------------------|----------------------|
C#-|----------------------|----------------------|
G#-|-2-2-2----X----X----X-|-2-2-2----X-----------|
D#-|-0-0-0----X----X----X-|-0-0-0----X-----------|
   |                                             |
   |                                             |
Guitar 2                                         |
D#-|----------0/---0/-----|-0-0-0/---------------|
A#-|----------0/---0/-----|-0-0-0/---------------|
F#-|----------0/---0/-----|-0-0-0/---------------|
C#-|----------------------|----------------------|
G#-|----------------------|----------------------|
D#-|----------------------|----------------------|


Riff 2 -


D#-|-15-15-15-15-15-15-15-15-15-15-15-15-15-15-15|
A#-|-17-17-17-17-17-17-17-17-17-17-17-17-17-17-17|
F#-|---------------------------------------------|
C#-|---------------------------------------------|
G#-|---------------------------------------------|
D#-|---------------------------------------------|



There's a lot of whammy bar action in this song.
Play riff 1 in the intro and during the verses.
Play riff 2 in the chorus screaming part.

Generally, any high pitched D# chord squeals will fit just fine. :)

-------------------------------------------------------------------
Archived by: -=UMS=- http://members.tripod.com/~ums02/pantera
Related for Good Friends And A Bottle Of Pills tab
×
Good Friends And A Bottle Of Pills