Song name
# A B C D E F G H I J K L M N O P Q R S T U V W X Y Z

Pantera - Hard Lines Sunken Cheeks tab

This is a great Pantera song and i didnt see too many tabs so i tabbed it out just as it is on the cd.
Use C sharp tuning.

Intro solo
|---------------------------------0------------------------|
|------------------------------------0---------------------|
|-----------6--------------6---7-----------------6---------|
|--------5--------------5---------------------5-------5----|
|-----7--------------7---------------------7-------------7-|
|--0--------------0---------------------0------------------|

|----------------------------------------------------------|
|----------------------------------------------------------|
|-----------------------------------6---------------6---7--|
|--------5--------5--------------5---------------5---------|
|-----7--------7--------------7---------------7------------|
|--6--------5--------/8----0---------------0---------------|

|--0-----------------------------------------------|
|-----0--------------------------------------------|
|-----------------6--------------------------------|
|--------------5-------5-----------5--------5------|
|-----------7-------------7-----7--------7---------|
|--------0-------------------6--------5--------3---|


Main riff
|----------------------------------------------------|
|----------------------------------------------------|
|----------------------------------------------------|
|-----------3---4-----------3---4------------3---4---|
|--2---/5---------2----/5-----------2---/5-----------|
|----------------------------------------------------|

-----------------------|
-----------------------|
-----------------------|
-----------------------|X5
--5-7-7-7-3-5-5-5-3----|
--3-5-5-5-1-3-3-3-1----|


Verse
|------------------------||-------------------------------|
|------------------------||-------------------------------|
|------------------------||-------------------------------|
|----------------------X2||-------------------------------|X4
|--2---------------------||------6\5-------6\5--------3---|
|--1---0000-00-0-0000---||--000-4\3---000-4\3---3-3-1-----|


chorus
|-------------------------------------------------------|
|-----------6-----------------6-------------------6-----|
|------4/(7)-7---------------4/7-------------4/(7)-7----|
|-------------------------------------------------------|
|--2------------------3-3-3-------------2---------------|
|----------------8\(1)-1-1-1-------8\(1)----------------|

|--------------------------|
|--------------------------|
|--------------------------|
|--------------------------|X2
|-------3-----4----5-------|
|--8\(1)-1-----2----3------|

Main riff
|----------------------------------------------------|
|----------------------------------------------------|
|----------------------------------------------------|
|-----------3---4-----------3---4------------3---4---|
|--2---/5---------2----/5-----------2---/5-----------|
|----------------------------------------------------|

-----------------------|
-----------------------|
-----------------------|
-----------------------|X2
--5-7-7-7-3-5-5-5-3----|
--3-5-5-5-1-3-3-3-1----|


Verse
|------------------------||-------------------------------|
|------------------------||-------------------------------|
|------------------------||-------------------------------|
|----------------------X2||-------------------------------|X4
|--2---------------------||------6\5-------6\5--------3---|
|--1---0000-00-0-0000---||--000-4\3---000-4\3---3-3-1-----|


chorus
|-------------------------------------------------------|
|-----------6-----------------6-------------------6-----|
|------4/(7)-7---------------4/7-------------4/(7)-7----|
|-------------------------------------------------------|
|--2------------------3-3-3-------------2---------------|
|----------------8\(1)-1-1-1-------8\(1)----------------|

|-------------------------|
|-------------------------|
|-------------------------|
|-------------------------|
|-------3-----4-----5-----|
|--8\(1)-1-----2-----3----|

|-------------------------------------------------------|
|------------6------------------6-----------------6-----|
|------4/(7)-7-------------4/(7)-7---------------4/7----|
|------------------------------------------4-4-4--------|
|--2-------------------3-------------------2-2-2--------|
|----------------8\(1)-1-------------8\(1)--------------|

|-------------------------|
|-------------------------|
|-------------------------|
|-------------------------|
|-------3----4----5-------|
|--8\(1)-1----2----3------|


solo
|---------------------------------------------------------|
|---------------------------------------------------------|
|----------------------------------------5^(6)^(5)--------|
|-----------4~~(5)-----------3---1-----------------3^(4)--|
|--3---/6----------3-----2-----------3--------------------|
|---------------------------------------------------------|

|-----------------------|
|-----------------------|
|--3^(4)----------------|
|--------3--4-----------|X2
|--------------3--4--3--|
|-----------------2--1--|

|---------------------------------0------------------------|
|------------------------------------0---------------------|
|-----------6--------------6---7-----------------6---------|
|--------5--------------5---------------------5-------5----|
|-----7--------------7---------------------7-------------7-|
|--0--------------0---------------------0------------------|

|----------------------------------------------------------|
|----------------------------------------------------------|
|-----------------------------------6---------------6---7--|
|--------5--------5--------------5---------------5---------|
|-----7--------7--------------7---------------7------------|
|--6--------5--------/8----0---------------0---------------|

|--0-----------------------------------------------|
|-----0--------------------------------------------|
|-----------------6--------------------------------|
|--------------5-------5-----------5--------5------|
|-----------7-------------7-----7--------7---------|
|--------0-------------------6--------5--------3---|

|------------------------------------------------------|
|*---------5--------------------------------5----------|
|----------5--------------------------------5----------|
|------/(7)-7---7\------2-3-2---3-------/(7)-7---7\----|
|*0----------------0---------------0-------------------|
|------------------------------------------------------|

|--------------------------------------------------|
|--------------5-----------------------------------|
|--------------5-----------------------------------|
|--3-----4-----5-----------------------------------|
|--3-----4-----3-------5----------7------3---------|
|--1-----2-----3-----------------------------3/----|

|-------------------------------------------------------|
|----------5--------------------------------5-----------|
|----------5--------------------------------5-----------|
|------/(7)-7---7\------2-3-2---3-------/(7)-7---7\-----| X4 2nd and 3rd time play fast
|--0----------------0---------------0-------------------|
|-------------------------------------------------------|

|--3-----0-----------|
|--3-----0-----------|
|--0-----0-----------|
|--0-----2-----------|
|--0-----2-----------|
|--3-----0-----------|

|-----------------------------------------------------|
|----------------------------------5------------------|
|----------------------------------5------------------|
|----------------------------------7------------------|
|--5---------------7-------3-------0-/\/\/\/\---------|
|-----------------------------------------------------|

|---------------------------------0------------------------|
|------------------------------------0---------------------|
|-----------6--------------6---7-----------------6---------|
|--------5--------------5---------------------5-------5----|
|-----7--------------7---------------------7-------------7-|
|--0--------------0---------------------0------------------|

|----------------------------------------------------------|
|----------------------------------------------------------|
|-----------------------------------6---------------6---7--|
|--------5--------5--------------5---------------5---------|
|-----7--------7--------------7---------------7------------|
|--6--------5--------/8----0---------------0---------------|

|--0-----------------------------------------------|
|-----0--------------------------------------------|
|-----------------6--------------------------------|
|--------------5-------5-----------5--------5------|
|-----------7-------------7-----7--------7---------|
|--------0-------------------6--------5--------3---|

Verse
|------------------------||-------------------------------|
|------------------------||-------------------------------|
|------------------------||-------------------------------|
|----------------------X2||-------------------------------|X2
|--2---------------------||------6\5-------6\5--------3---|
|--1---0000-00-0-0000---||--000-4\3---000-4\3---3-3-1-----|

chorus
|-------------------------------------------------------|
|-----------6-----------------6-------------------6-----|
|------4/(7)-7---------------4/7-------------4/(7)-7----|
|-------------------------------------------------------|
|--2------------------3-3-3-------------2---------------|
|----------------8\(1)-1-1-1-------8\(1)----------------|

|--------------------------|
|--------------------------|
|--------------------------|
|--------------------------|X2
|-------3-----4----5-------|
|--8\(1)-1-----2----3------|

Main riff
|----------------------------------------------------|
|----------------------------------------------------|
|----------------------------------------------------|
|-----------3---4-----------3---4------------3---4---|
|--2---/5---------2----/5-----------2---/5-----------|
|----------------------------------------------------|

--------------------------|
--------------------------|
--------------------------|
----------------------X10-| fade out
--5-7-7-7-3-5-5-5-3-------|
--3-5-5-5-1-3-3-3-1-------|

Tablature

/=slide up
\=slide down
( )=ghost note
/\/\/\=dive bomb with bar
^=bend up
~ =vibrato
Tap to rate this tab
# A B C D E F G H I J K L M N O P Q R S T U V W X Y Z