Song name
# A B C D E F G H I J K L M N O P Q R S T U V W X Y Z

Pantera - Living Through Me Hells Wrath tab

PANTERA - LIVING THROUGH ME (Hells' Wrath)
From the Album THE GREAT SOUTHERN TRENDKILL

Tabbed By: Marcus P?ivi? [the_parasite24@hotmail.com]

. - palm mute                           / - slide up to
\ - slide down to                       ~ - vibrato
" - tremelo picking                    () - ghost note
p - pull off                            h - hammer-on
tr - trill notes                       fb - full bend (1step)
< > - harmonic                          ^ - fermat ( let ring for some time)
hb - half bend (?step)                  d - dive
Pantera - Living Trough Me (Hells Wrath)

Tuning = D (D,G,C,F,A,D)

Riff A.1
|---------------------------------------------------|
|---------------------------------------------------|
|---------------------------------------------------|Gtrs I
|-4-----4---4-----4---4-------------4-----4---4-----|  & II
|-4-----4---4-----4---4-------------4-----4---4-----|
|-2-2-2-2-2-2-2-2-2-2-2-2-2222-2222-2-2-2-2-2-2-2-2-|
pm  . .   .   . .   .   . .... ....   . .   .   . .

Riff A.2
|---------------|
|---------------|
|---------------|Gtr I
|-4-------------|
|-4-------------|
|-2/4/18fb---\0-|
|               |
|---------------|
|---------------|
|---------------|Gtr II
|-4-------------|
|-4-------------|
|-2/4/14fb---\0-|

Riff B.1
|-----------------------------------|
|-----------------------------------|
|-----------------------------------|Gtrs I
|-2-----2---2-----2---2-------------|  & II
|-2-----2---2-----2---2---2222-3333-|
|-0-0-0-0-0-0-0-0-0-0-0-0-0000-1111-|
pm  . .   .   . .   .   . .... ....

Repeat Riff B.1 (3 times)

|----------------------|
|----------------------|
|----------------------|Gtrs I
|----------------------|  & II
|----------------------|
|-0000-0-5hb---3---5hb-|

Repeat Riff B.1 (4 times)

Riff C.1
|----------------------------------|
|----------------------------------|
|----------------------------------|Gtrs I
|----------------------------------|  & II
|-9-----8-888-7---7-5-555-555-4----|
|-7-7-7-6-666-5-5-5-3-333-222-2----|
pm  . .   ...   .   . ... ...

Riff D.1
|-------------------------------------------------------------------|
|-------------------------------------------------------------------|
|-------p-------------------p------------p-------------------p------|Gtrs I
|------2-0----------p------5-0-1/2------2-0----------p------5-0-7/8-|  & II
|------------1/2---5-0-1/2--------------------1/2---5-0-1/2---------|
|-0--------0-----0-----------------0--------0-----0-----------------|

Riff D.2
|-------------------------------------------------------------------|
|-------------------------------------------------------------------|
|-------p-------------------p------------p-------------------p------|Gtrs I
|------2-0----------p------5-0-1/2------2-0----------p------5-0-8\7-|  & II
|------------1/2---5-0-1/2--------------------1/2---5-0-1/2---------|
|-0--------0-----0-----------------0--------0-----0-----------------|

Riff A.3
|-------------------------------------|
|-------------------------------------|
|-------------------------------------|Gtr I
|-4-----4---4-----4---4---------------|
|-4-----4---4-----4---4---------------|
|-2-2-2-2-2-2-2-2-2-2-2-(2)/17~----\0-|
                                      |
|-------------------------------------|
|-------------------------------------|
|-------------------------------------|Gtr II
|-4-----4---4-----4---4---------------|
|-4-----4---4-----4---4---------------|
|-2-2-2-2-2-2-2-2-2-2-2-(2)/21~----\0-|

Repeat riff B.1 (4 times)

Riff E.1
|-------------------------|
|-------------------------|
|-------------------------|Gtrs I
|-4----4-4----4----4-4----|  & II
|-4----4-4----4----4-4----|
|-2----2-2----2----2-2----|

Repeat Riff E.1 (1 time)
Repeat Riff B.1 (4 times)
Repeat Riff C.1 (1 time)
Repeat Riff D.1 (1 time)
Repeat Riff D.2 (1 time)
Repeat Riff D.1 (1 time)
Repeat Riff D.2 (1 time)

Riff F.1
|----------------------------------------------------|
|----------------------------------------------------|
|-----------------------------------------p----------|Gtrs I
|----------------------------------------2-0---------|  & II
|-2-----1-----0-----4-----5----6---------------1/2---|
|-3-----2-----1-----5-----6----7----0--------0-----0-|

Riff F.2
|-----------------|
|-----------------|
|-----------------|Gtrs I
|--p-------p------|  & II
|-5-0-1/2-5-0-1/2-|
|-----------------|

Repeat Riff F.1 (1 time)

Riff F.3
|-----------------|
|-----------------|
|----------p------|Gtrs I
|--p------5-0-1/2-|  & II
|-5-0-1/2---------|
|-----------------|

Repeat Riff F.1 (1 time)

Riff F.4
|-----------------|
|-----------------|
|--p-------p------|Gtrs I
|-5-0-1/2-5-0-1/2-|  & II
|-----------------|
|-----------------|

Riff F.5
|---------------------------------------------------------------------|
|---------------------------------------------------------------------|
|---------------------------------------------------------------------|Gtrs I
|---------------------------------------------------------------------|  & II
|-2-----1-----0-----4-----5----6--------------------------------------|
|-3-----2-----1-----5-----6----7----3-----2-----1----(1)/7-----6----5-|

Repeat Riff C.1 (1 time)

Riff G.1
|-------------------------------------|
|-------------------------------------|
|-------------------------------------|Gtrs I
|-2----2----2----(2)----(2)----(2)----|  & II
|-2----2----2----(2)----(2)----(2)----|
|-0----0----0----(0)----(0)----(0)----|
            ^
Riff G.2 *fade in with volume knob
|-------|
|-------|
|--*----|Gtr I
|-7-----|
|-------|
|-------|

Riff G.3   **bend (1/4 step)
|------------------------------------|
|---------------------/6fb-----------|
|-5-----(5)b**--2---------------2----|Gtrs I
|------------------------------------|
|------------------------------------|
|------------------------------------|
|                                    |
|------------------------------------|
|------------------------------------|
|---------------------/7fb-----------|Gtrs II
|-7-----(7)b**--4---------------4----|
|------------------------------------|
|------------------------------------|

Repeat Riff G.3 (4 times)

Riff G.4
|-----------------------------------------------------------|
|-----------------------------------------------------------|
|-----------------------------------------------------------|Gtrs I
|-444-444-444-444-444-444-4----555-555-555-555-555-555-5----|  & II
|-333-333-333-333-333-333-3----444-444-444-444-444-444-4----|
|-222-222-222-222-222-222-2----333-333-333-333-333-333-3----|

Riff G.5                                               *dive w/bar 1?step
|--------------------------------------------------------------------|
|--------------------------------------------------------------------|
|--------------------------------------------------------------------|Gtrs I
|-666-666-666-666-666-666-6----777-777-777-777-888-888-8--9--9-------|  & II
|-555-555-555-555-555-555-5----666-666-666-666-777-777-7--8--8-------|
|-444-444-444-444-444-444-4----555-555-555-555-666-666-6--7--7--7d*--|

Riff A.4
|-----------------------------------|
|-----------------------------------|
|-----------------------------------|Gtrs I
|-4-----4---4-----4---4-------------|  & II
|-4-----4---4-----4---4-------------|
|-2-2-2-2-2-2-2-2-2-2-2-2-2222-2222-|
pm  . .   .   . .   .   . .... ....

Repeat Riff B.1 (4 times)
Repeat Riff E.1 (1 time)
Repeat Riff B.1 (2 times)
Repeat Riff C.1 (1 time)
Repeat Riff D.1 (1 time)
Repeat Riff D.2 (1 time)
Repeat Riff D.1 (1 time)
Repeat Riff D.2 (1 time)
Repeat Riff F.1 (1 time)
Repeat Riff F.2 (1 time)
Repeat Riff F.1 (1 time)
Repeat Riff F.3 (1 time)
Repeat Riff F.1 (1 time)
Repeat Riff F.4 (1 time)
Repeat Riff F.5 (1 time)
Repeat Riff C.1 (1 time)

Last Riff   *let ring for awhile
|----------|
|----------|
|----------|
|----------|
|-2*-------|
|-0--------|
Tap to rate this tab
# A B C D E F G H I J K L M N O P Q R S T U V W X Y Z