Song name
# A B C D E F G H I J K L M N O P Q R S T U V W X Y Z

Pantera - Goddamn Electric tab

Artist: Pantera
Title: Goddamn Electric
Album: Reinventing the Steel
Transcribed by: Tim Ward
Email: conky_333@hotmail.com
Tuneing: Standard Or Tune All Strings Down A Step

Absolutely 100% Correct

Palm mutes are obvious, if you don't know which ones they are
then you shouldn't be playing this song in the first place. 

----------------------------------------------------------------------------
*LEGEND*
DUMP BAR: Push down on bar until strings are completly slack
BR: Bend and release
p: Pull Off
/: Slide up neck
\:Slide down neck
h: Hammer On
PH: Pinch Harmonic
B: Bend
v: Vibrato
----------------------------------------------------------------------------

|--------------------------------------------------------------------------|
|--------------------------------------------------------------------------|
|--------------------------------------------------------------------------|
|-4-4-4------------4-4-4------------4-4-4------------4/3-4/3-4/3-----------|
|-4-4-4------------4-4-4------------4-4-4------------4/3-4/3-4/3-----------|
|-2-2-2-2-2-2--2-2-2-2-2-2-2-2--2-2-2-2-2-2-2-2--2-2-------------1-1-1--1-1|

|------|---------------------------|-----------------------------|
|------|---------------------------|-----------------------------|
|------|---------------------------|-----------------------------|
|------|------------------8-8-8----|-----------------------------|
|------|------------------8-8-8----|-----------------------------|
|--1/--|--0-1/--0-0-1/-0--6-6-6----|--0-1/--0-0-1/---0-DUMP BAR--|

|---------------------------------------------|
|---------------------------------------------|
|---------------------------------------------|
|---------------------------------------------|
|--7--7-7--7-7--7-7--7--8--8-8--8--6--6-6--6--|
|--0--0-0--0-0--0-0--0--0--0-0--0--0--0-0--0--|

|-----------------------------------------------------|--------------------|
|-----------------------------------------------------|--------------------|
|----/10B---/10B---/10B---/10B--8B--------------------|-------8B---8B---8B-|
|-----------------------------------------------------|--------------------|
|----/8B----/8B----/8B----/8B---6B--7-7--7-7--7-7--7--|-------6B---6B---6B-|
|--0------0------0------0-----------0-0--0-0--0-0--0--|-0-0-0----0----0----|

|------------------------------------------------|
|------------------------------------------------|
|----/10B--/11B--/12B--/13B----------------------|
|------------------------------------------------|
|----/8B---/9B---/10B--/11B------10\9-9\7-7\5-2--|
|--0--------------------------0---8\7-7\5-5\3-0--|

|-------------------------------------------------------------|
|-------------------------------------------------------------|
|-------------------------------------------------------------|
|-------------------------------------------------------------|
|--2-------4/5-----2-------4/5\3-2-------4/5-----2-------2----|
|--0-0-0-0-2/3-0-0-0-0-0-0-2/3\1-0-0-0-0-2/3-0-0-0-0-2h4---4--|

|----------------------------------------|
|----------------------------------------|
|----------------------------------------|
|--5--------5---------7--------7---------|
|--5--------3---------7--------7---------|
|--3-3-3333-3-3-3333--5-5-5555-5-5-5555--|

|-----------------------------------------|
|-----------------------------------------| 
|-----------------------------------------|  
|-------------------------------5PH-------|  
|--0h2----------------------2/5-----7PHv--| 
|--0---0-0-4BR2--0-0-4BR2h4---------------|
                                                                     
|----------------------------|
|----------------------------|
|----------------------------|
|----------------------------|
|--0h2--------------------2--|
|--0---0-0-5BBBBBB---4BR2-0--|

|-------------------------------------------|
|-------------------------------------------|
|-------------------------------------------|
|--5--------5---------7--------7---------8--|
|--5--------3---------7--------7---------8--|
|--3-3-3333-3-3-3333--5-5-5555-5-5-5555--6--|

|----------------------------------|
|----------------------------------|
|--------------------------6h8/10--|
|----------8---6------6B-----------|
|----4h6/8---8----6h8----8---------|
|--6-------------------------------|

|---------------------------------------------------------|
|---------------------------------------------------------|
|--9h11-9B--9h11-9B----11-9B--11-9B--11-9B--11-9B--11-9v--|
|---------------------------------------------------------|
|---------------------------------------------------------|
|---------------------------------------------------------|

|--------------------------------------------------------------------------|
|-----17p13------------17p13------------15p13------------15p13-------------|
|-15v-------17p13------------17p13------------15p13------------15p13-------|
|-----------------17p13------------17p13------------15p13------------15p13-|
|--------------------------------------------------------------------------|
|--------------------------------------------------------------------------|

|-------------------------------------------------|
|-------------------------------------------------|
|--15p13----------------15p13---------------------|
|--------15p14p12-------------15p13\12-------14v--|
|-----------------14p12----------------14p12------|
|-------------------------------------------------|

|------------------------------------------|
|------------------------------------------|
|--15v-15v-15v-15v---12h14-12-14p12---15B--|
|------------------------------------------|
|------------------------------------------|
|------------------------------------------|

|--------------------------------------------------------|
|-----12h14h15p1412----14h16h17p16p14----15h17h18p17p15--|
|--12---------------14----------------15-----------------|
|--------------------------------------------------------|
|--------------------------------------------------------|
|--------------------------------------------------------|

|----------------------------------------------------------------------|
|-----15h17h18/19\18p7p15-15h17h18/19\18p7p15-15h17h18/19\18p7p15-22B--|
|--15------------------------------------------------------------------|
|----------------------------------------------------------------------|
|----------------------------------------------------------------------|
|----------------------------------------------------------------------|

|--------------------------------------------------------------------------|
|--22-20-19-20-19----------------------------------------------------------|
|-----------------21-19-18-19-18----19-18----------------------------------|
|--------------------------------21-------21-19-18-19-18----19-18----------|
|--------------------------------------------------------21-------21-19-18-|
|--------------------------------------------------------------------------|

|-------------------|
|-------------------|
|-------------------|
|-------------------|
|--/19-/20-/21-/22--|
|-------------------|

|-------------------------------------------|
|-------------------------------------------|
|-------------------------------------------|
|-------------------------------------------|
|--2--3-3--4-4--5-5--6-2--3-3--4-4--5-5--6--|
|--0--1-1--2-2--3-3--4-0--1-1--2-2--3-3--4--|

R.I.P. Dimebag Darrell Abbott
The Greatest Guitarist To Ever Live
Tap to rate this tab
# A B C D E F G H I J K L M N O P Q R S T U V W X Y Z