Song name
# A B C D E F G H I J K L M N O P Q R S T U V W X Y Z

Pantera - Death Rattle tab

Pantera
Reinventing the Steel
Death Rattle
TAB by Keryn Hamilton: zepplin@start.com.au
"Through avarice evil smiles, through insanity it sings."
----------------------------------------------------------------------


Rhythm Fig. 1                 
-----------------------------------|
-----------------------------------|
-----------------------------------|
-----------------------------------|
-4-5--------------4-5--------------|
-2-3--0-3p2p0-2-0-2-3--0-3p2p0-2-0-|


Rhythm Fig. 2
-----------------------------|
-----------------------------|
-----------------------------|
-----------------------------|
-6\5-6--5\4-5--4\3-4--3-2-3--|
-4\3-4--3\2-3--2\1-2--1-0-1--|


Rhythm Fig. 3
----------------------------------|----------------------------------|
----------------------------------|----------------------------------|
----------------------------------|----------------------------------|
----------------------------------|----------------------------------|
---------3h5---3h6---3h5-----4/5--|---------3h5---3h6---3h5-----4----|
-0-0-0-0-----0-----0-----0-0-2/3--|-0-0-0-0-----0-----0-----0-0-2----|



----------------------------------|---------------------------------|
----------------------------------|---------------------------------|
----------------------------------|---------------------------------|
----------------------------------|---------------------------------|
---------3h5---3h6---3h5-----4/5--|---------3h5---1h3---0h1--3/5\3--|
-0-0-0-0-----0-----0-----0-0-2/3--|-0-0-0-0-----0-----0------1/3\1--|


Rhythm Fig. 4 (Similar to Fig. 1)
-----------------------------------|
-----------------------------------|
-----------------------------------|
-----------------------------------|
-5-2--------------5-2--------------|
-3-0--0-3p2p0-2-0-3-0--0-3p2p0-2-0-|


Interlude
---------------------------------|---------------------------------|
---------------------------------|---------------------------------|
---------------------------------|---------------------------------|
---------------------------------|---------------------------------|x4
---------------------------------|-----------------3h5---1h3-3/5\3-|
-0-0-0-0-0-0-0-0-0-0-0-0-0-0-0-0-|-0-0-0-0-0-0-0-0-----0-----1/3\1-|


Rhythm Fig. 5
-----------------------------|-----------------------------|
-----------------------------|-----------------------------|
-----------------------------|-----------------------------|
-----------------------------|-----------------------------|x4
-------3h5---1h3-3/5\3-3/5\3-|-------3h5---1h3-3/5\3-5-4-3-|
-0-0-0-----0-----1/3\1-1/3\1-|-0-0-0-----0-----1/3\1-3-2-1-|


This is followed by some silly noise and then...


Rhythm Fig. 6 (Under solo)
-------------------------|-------------------------|
-------------------------|-------------------------|
-------------------------|-------------------------|
-------------------------|-------------------------|
-4-3--3--3--3-4-3--7-6---|-4-3--3--3--3-4-3--7-6---|
-2-1--1--1--1-2-1--5-4---|-2-1--1--1--1-2-1--5-4---|


-------------------------|-------------------------|
-------------------------|-------------------------|
-------------------------|-------------------------|
-------------------------|-------------------------|
-5-4--4--4--4-5-4--8-7---|-5-4--4--4--4-5-4--8-7---|
-3-2--2--2--2-3-2--6-5---|-3-2--2--2--2-3-2--6-5---|


-------------------------|-------------------------|
-------------------------|-------------------------|
-------------------------|-------------------------|
-------------------------|-------------------------|
-6-5--5--5--5-6-5--9-8---|-6-5--4--4--4-6-5--9-8---|
-4-3--3--3--3-4-3--7-6---|-4-3--2--2--2-4-3--7-6---|


--------------------------|
--------------------------|
--------------------------|
--------------------------|
-7-6--6--6--6-9-8--8--8---|
-5-4--4--4--4-7-6--6--6---|


-----------------------------------------------|----------------|
-----------------------------------------------|----------------|
-----------------------------------------------|----------------|
-----------------------------------------------|----------------|
-----------------------------------------------|----------------|
-7-7-10-7--9-9-12-9--10-10-13-10--12-12-15-12--|-13\------------|

----------------------------------------------------------------------


That's it fellas, apart from a few trem. bar bends the last riff and 
the solo, I think I got it all in there (In no particular order, use 
your ears and figure it out). If you have any suggestion's, don't be 
afraid to mail me.
Tap to rate this tab
# A B C D E F G H I J K L M N O P Q R S T U V W X Y Z