Song name
# A B C D E F G H I J K L M N O P Q R S T U V W X Y Z

Pantera - I Cant Hide tab

                           Pantera
                          I Cant Hide


Tuning: Drop D
p- pull off

bass intro, feel free to play along
-----------------------------------------------------------|
-----------------------------------------------------------|
-----------------------------------------------------------|
-----------------------------------------------------------|
-----------------------------------------------------------|
-8-8-8-8-8-8-8-8-8-8-8-8-8-8-5-5-5-5-5-5-5-2-2-2-2-2-0-0---|  x1

verse
-----------------------------------------------------|
-----------------------------------------------------|
-----11-----12-------13-----12-----11p9--9---5---7---|
-9-9----9-9-----9-9-----9-9----9-9-------9---5---7---|
-----------------------------------------------------|
-----------------------------------------------------|x4

play this part^^^ with you index and little finger

chorus ''i cant hide''
-------------------------------|
-------------------------------|
-------------------------------|   x3
-x-x-x-x-x-x-0-1-2-2-2-2-2-2-2-|
-x-x-x-x-x-x-0-1-2-2-2-2-2-2-2-|
-x-x-x-x-x-x-0-1-2-2-2-2-2-2-2-|


no solo yet


interval
----------------|
----------------|
----------------|
-0-0-0-0-0-0-0--|
-0-0-0-0-0-0-0--|
-0-0-0-0-0-0-0--| repeat as many times as necissary


order:

intro x1
verse x4
chorus x3
verse x6
chorus x3
verse x4
intro x1
solo
interval x1
solo
interval x(you figure it out)
Tap to rate this tab
# A B C D E F G H I J K L M N O P Q R S T U V W X Y Z