Guitaretab - guitar tabs
Song name
# A B C D E F G H I J K L M N O P Q R S T U V W X Y Z

Pantera - Over And Out tab

Pantera- over and out
Gtr I (E A D G B E) - 'Guitar 1'
       PM--|    PM--|       PM--|     PM--|
       |-3-|    |-3-|       |-3-|     |-3-|
    Q  S S S Q  S S S    Q  S S S  Q  S S S
||--------------------|---------------------|
||o-------------------|---------------------|
||--------------------|---------------------|
||--9--------9--------|-10--------10--------|
||o-7--------7--------|--7---------7--------|
||-----0-0-0----0-0-0-|-----0-0-0-----0-0-0-|


     PM--|    PM--|
     |-3-|    |-3-|   |-3-| |-3-| |-3-| |-3-|
  Q  S S S Q  S S S   S S S S S S S S S S S S
|-------------------|--------------------------||
|-------------------|-------------------------o||
|-------------------|--------------------------||
|-9--------9--------|-------------5p3p2h3p2p0--||
|-7--------7--------|-3p2h3h5p3p2-------------o||
|----0-0-0----0-0-0-|--------------------------||


                           3/4
  |-3-| |-3-| |-3-| |-3-|
  S S S S S S S S S S S S   H.
|-------------------------|-------|
|-------------------------|-------|
|-------------5p4p2h4p2p0-|-------|
|-3p2h3h5p3p2-------------|-------|
|-------------------------|-2-----|
|-------------------------|-0-----|


   4/4
       PM--|    PM--|       PM--|     PM--|
       |-3-|    |-3-|       |-3-|     |-3-|
    Q  S S S Q  S S S    Q  S S S  Q  S S S
||--------------------|---------------------|
||o-------------------|---------------------|
||--------------------|---------------------|
||--9--------9--------|-10--------10--------|
||o-7--------7--------|--7---------7--------|
||-----0-0-0----0-0-0-|-----0-0-0-----0-0-0-|


     PM--|    PM--|
     |-3-|    |-3-|   |-3-| |-3-| |-3-| |-3-|
  Q  S S S Q  S S S   S S S S S S S S S S S S
|-------------------|--------------------------||
|-------------------|-------------------------o||
|-------------------|--------------------------||
|-9--------9--------|-------------5p3p2h3p2p0--||
|-7--------7--------|-3p2h3h5p3p2-------------o||
|----0-0-0----0-0-0-|--------------------------||


                            Q=150
                            PM----------------|
  |-3-| |-3-| |-3-| |-3-|
  S S S S S S S S S S S S   E E E E E E E E   Q  H.
|-------------------------|-----------------|----------|
|-------------------------|-----------------|----------|
|-------------5p4p2h4p2p0-|-5-4-2-----------|----------|
|-3p2h3h5p3p2-------------|-3-2-0-5-4-------|----------|
|-------------------------|-------3-2-5-3-5-|-2--------|
|-------------------------|-----------3-1-3-|-0--------|


  PM----------------|    PM  PM--|
  E E E E E E E E   Q  E E E E E E
|-----------------|----------------|
|-----------------|----------------|
|-5-4-2-----------|----------------|
|-3-2-0-5-4-------|----------------|
|-------3-2-5-3-5-|-2----2---2-2-2-|
|-----------3-1-3-|-0----0---0-0-0-|


  PM------------------------|   PM----|   PM----------------------|         PM
  E E E E E E E E   E S S S S E S S S S E S S   E E E E E E E E   Q  H    E E
|-----------------|---------------------------|-----------------|--------------|
|-----------------|---------------------------|-----------------|--------------|
|-5-4-2-----------|---------------------------|-5-4-2-----------|--------------|
|-3-2-0-5-4-------|---------------------------|-3-2-0-5-4-------|--------------|
|-------3-2-5-3-5-|-2---------2---------2-----|-------3-2-5-3-5-|-2------------|
|-----------3-1-3-|-0-0-0-0-0-0-0-0-0-0-0-0-0-|-----------3-1-3-|-0---------3--|


      PM  PM  PM|     PM  PM   PM
    E E E E E E E E   E E E Q  E E E
||------------------|----------------|
||o-----------------|----------------|
||------------------|----------------|
||------------------|----------------|
||o-4---3---1-----4-|---3---1----4---|
||----3---3---3-3---|-3---3----3---3-|


    PM  PM|    PM----------|   PM----|       PM
  E E E E E Q  S S   S S S S E S S S S S S E E
|------------------|-----------------------------|
|------------------|-----------------------------|
|------------------|-----------------------------|
|------------------|---------3-------------3-----|
|-3---1-----4------|---------1-------------1-----|
|---3---3-3----2-2-|-2-2-2-2---2-2-2-2-2-2---3---|


    PM  PM  PM|     PM  PM   PM  PM
  E E E E E E E E   E E E Q  E E E
|-----------------|----------------|
|-----------------|----------------|
|-----------------|----------------|
|-----------------|----------------|
|-4---3---1-----4-|---3---1----4---|
|---3---3---3-3---|-3---3----3---3-|


    PM  PM|    PM----------|   PM--------|   PM
  E E E E E Q  S S   S S S S E S S S S S S E E
|------------------|----------------------------||
|------------------|---------------------------o||
|------------------|----------------------------||
|------------------|---------3-------------3----||
|-3---1-----4------|---------1-------------1---o||
|---3---3-3----1-1-|-1-1-1-1---1-1-1-1-1-1---3--||


                           PM------|
     E q  q  q  e   +e  q  E E E E E
||----------------|------------------|
||o---------------|------------------|
||----------------|------------------|
||--10-9--7--9----|------------------|
||o--8-7--5--7--5-|-(5)-7------------|
||--------------3-|-(3)-5--0-3-5-3-0-|


              PM----|     PM  PM    PM
   E q  q  q  S S   S S S S E S S S S Q  +E
|-----------------|---------------------------||
|-----------------|--------------------------o||
|-----------------|---------------------------||
|-10-9--7--9------|---------------------------||
|--8-7--5--7------|---------5---------5--(5)-o||
|-------------3-3-|-3-3-3-3-3-3-3-3-3-3--(3)--||


  Q=80
  S S S S S S S S S S S S S S S S
|---------------------------------|
|---------------------------------|
|---------------------------------|
|-3-2-----------------------------|
|-----5-3-2-----------------------|
|-----------5-3-1-5-4-3-2-4-3-2-1-|


      PM--|   PM--|   PM----| ~~~~    PM--|   PM--|   PM----| ~~~~
    S S S S S S S S S S S S S S E   S S S S S S S S S S S S S S E
||--------------------------------|--------------------------------||
||o-------------------------------|-------------------------------o||
||--------------------------------|--------------------------------||
||--------------------------------|--------------------------------||
||o-2-------2-------2---------7-7-|-2-------2-------2---------6-6-o||
||--0-0-0-0-0-0-0-0-0-0-0-0-0-5-5-|-0-0-0-0-0-0-0-0-0-0-0-0-0-4-4--||


    Q=150
     q  q  q  q     q  q  E E Q     q  q  q  q     q  q  E E Q
||---------------|---------------|--------------|-----------------||
||o--------------|---------------|--------------|----------------o||
||---------------|---------------|--------------|-----------------||
||--10--9--8--9--|-10--9--x------|-10--9--8--9--|-10--9--x-6-6----||
||o--7--6--5--6--|--7--6--x-8-8--|--7--6--5--6--|--7--6--x-4-4---o||
||---------------|----------6-6--|--------------|-----------------||


      PM  PM  PM|     PM  PM   PM  PM
    E E E E E E E E   E E E Q  E E E
||------------------|----------------|
||o-----------------|----------------|
||------------------|----------------|
||------------------|----------------|
||o-4---3---1-----4-|---3---1----4---|
||----3---3---3-3---|-3---3----3---3-|


    PM  PM|    PM----------|   PM----|       PM
  E E E E E Q  S S   S S S S E S S S S S S E E
|------------------|-----------------------------|
|------------------|-----------------------------|
|------------------|-----------------------------|
|------------------|---------3-------------3-----|
|-3---1-----4------|---------1-------------1-----|
|---3---3-3----2-2-|-2-2-2-2---2-2-2-2-2-2---3---|


    PM  PM  PM|     PM  PM   PM  PM
  E E E E E E E E   E E E Q  E E E
|-----------------|----------------|
|-----------------|----------------|
|-----------------|----------------|
|-----------------|----------------|
|-4---3---1-----4-|---3---1----4---|
|---3---3---3-3---|-3---3----3---3-|


    PM  PM|    PM----------|   PM--------|   PM
  E E E E E Q  S S   S S S S E S S S S S S E E
|------------------|----------------------------||
|------------------|---------------------------o||
|------------------|----------------------------||
|------------------|---------3-------------3----||
|-3---1-----4------|---------1-------------1---o||
|---3---3-3----1-1-|-1-1-1-1---1-1-1-1-1-1---3--||


                           PM------|
     E q  q  q  e   +e  q  E E E E E
||----------------|------------------|
||o---------------|------------------|
||----------------|------------------|
||--10-9--7--9----|------------------|
||o--8-7--5--7--5-|-(5)-7------------|
||--------------3-|-(3)-5--0-3-5-3-0-|


              PM----|     PM  PM    PM
   E q  q  q  S S   S S S S E S S S S Q  +E
|-----------------|---------------------------||
|-----------------|--------------------------o||
|-----------------|---------------------------||
|-10-9--7--9------|---------------------------||
|--8-7--5--7------|---------5---------5--(5)-o||
|-------------3-3-|-3-3-3-3-3-3-3-3-3-3--(3)--||


  Q=80
  S S S S S S S S S S S S S S S S
|---------------------------------|
|---------------------------------|
|---------------------------------|
|-3-2-----------------------------|
|-----5-3-2-----------------------|
|-----------5-3-1-5-4-3-2-4-3-2-1-|


      PM--|   PM--|   PM----| ~~~~    PM--|   PM--|   PM----| ~~~~
    S S S S S S S S S S S S S S E   S S S S S S S S S S S S S S E
||--------------------------------|--------------------------------||
||o-------------------------------|-------------------------------o||
||--------------------------------|--------------------------------||
||--------------------------------|--------------------------------||
||o-2-------2-------2---------7-7-|-2-------2-------2---------6-6-o||
||--0-0-0-0-0-0-0-0-0-0-0-0-0-5-5-|-0-0-0-0-0-0-0-0-0-0-0-0-0-4-4--||


    Q=150
     q  q  q  q     q  q  E E Q     q  q  q  q     q  q  E E Q
||---------------|---------------|--------------|-----------------||
||o--------------|---------------|--------------|----------------o||
||---------------|---------------|--------------|-----------------||
||--10--9--8--9--|-10--9--x------|-10--9--8--9--|-10--9--x-6-6----||
||o--7--6--5--6--|--7--6--x-8-8--|--7--6--5--6--|--7--6--x-4-4---o||
||---------------|----------6-6--|--------------|-----------------||

[ Tab from: http://www.guitaretab.com/p/pantera/42495.html ]
    PM  PM  PM|     PM  PM   PM  PM
  E E E E E E E E   E E E Q  E E E
|-----------------|----------------|
|-----------------|----------------|
|-----------------|----------------|
|-----------------|----------------|
|-4---3---1-----4-|---3---1----4---|
|---3---3---3-3---|-3---3----3---3-|


    PM  PM|    PM----------|   PM----|       PM
  E E E E E Q  S S   S S S S E S S S S S S E E
|------------------|---------------------------|
|------------------|---------------------------|
|------------------|---------------------------|
|------------------|---------3-------------3---|
|-3---1-----4------|---------1-------------1---|
|---3---3-3----2-2-|-2-2-2-2---2-2-2-2-2-2---3-|


    PM  PM  PM|     PM  PM   PM  PM
  E E E E E E E E   E E E Q  E E E
|-----------------|----------------|
|-----------------|----------------|
|-----------------|----------------|
|-----------------|----------------|
|-4---3---1-----4-|---3---1----4---|
|---3---3---3-3---|-3---3----3---3-|


    PM  PM|    PM----------|   PM--------|   PM
  E E E E E Q  S S   S S S S E S S S S S S E E
|------------------|---------------------------
|------------------|---------------------------
|------------------|---------------------------
|------------------|---------3-------------3---
|-3---1-----4------|---------1-------------1---
|---3---3-3----1-1-|-1-1-1-1---1-1-1-1-1-1---3-


                           PM------|
     E q  q  q  e   +e  q  E E E E E
||----------------|------------------|
||o---------------|------------------|
||----------------|------------------|
||--10-9--7--9----|------------------|
||o--8-7--5--7--5-|-(5)-7------------|
||--------------3-|-(3)-5--0-3-5-3-0-|


              PM----|     PM  PM    PM
   E q  q  q  S S   S S S S E S S S S Q  +E   4x
|-----------------|---------------------------||
|-----------------|--------------------------o||
|-----------------|---------------------------||
|-10-9--7--9------|---------------------------||
|--8-7--5--7------|---------5---------5--(5)-o||
|-------------3-3-|-3-3-3-3-3-3-3-3-3-3--(3)--||


  Q=80
  S S S S S S S S S S S S S S S S   Q  H.
|---------------------------------|----------|
|---------------------------------|----------|
|---------------------------------|----------|
|-3-2-----------------------------|----------|
|-----5-3-2-----------------------|-2--------|
|-----------5-3-1-5-4-3-2-4-3-2-1-|-0--------|


  Q=200
  Wx32
|---------|
|---------|
|---------|
|---------| <- - Sorry, I don't know the solo (no rhythm guitar underneath)
|---------|
|---------|


  Q=120
  PM--|               PM--|
  E S S S E S Q  Q    E S S S E S E S S Q
|-------------------|----------------------|
|-------------------|----------------------|
|-------------------|----------------------|
|-------9S5------7--|-------9S5---------9--|
|-------7S3------5--|-------7S3---------7--|
|-0-0-0-----0-0-----|-0-0-0-----0-0-0-0----|


  PM--|
  E S S S E S Q  Q    S S S S S S S S S S S S S S S S
|-------------------|---------------------------------|
|-------------------|---------------------------------|
|-------------------|---------------------------------|
|-------9S5------7--|-3-2-----------------------------|
|-------7S3------5--|-----5-3-2-----------------------|
|-0-0-0-----0-0-----|-----------5-3-1-5-4-3-2-4-3-2-1-|


  Q=220
  PM--------------------------------------------------------|
  S S S S S S S S S S S S S S S S   S S S S S S S S S S S S Q
|---------------------------------|-----------------------------
|---------------------------------|-----------------------------
|---------------------------------|-----------------------------
|---------------------------------|-------------------------4---
|---------------------------------|-------------------------2---
|-0-0-0-0-0-0-0-0-0-0-0-0-0-0-0-0-|-0-0-0-0-0-0-0-0-0-0-0-0-----


    PM--------------------------------------------------------|
    S S S S S S S S S S S S S S S S   S S S S S S S S S S S S Q
||----------------------------------|-----------------------------||
||o---------------------------------|----------------------------o||
||----------------------------------|-----------------------------||
||----------------------------------|-------------------------5---||
||o---------------------------------|-------------------------3--o||
||--0-0-0-0-0-0-0-0-0-0-0-0-0-0-0-0-|-0-0-0-0-0-0-0-0-0-0-0-0-----||


                                      Q=150
  E E E E E E E E   E E E E E E E E   Q  H.
|-----------------|-----------------|----------|
|-----------------|-----------------|----------|
|-----------------|-----------------|----------|
|-3-2-------------|-----------------|----------|
|-----5-3-2-------|-----------------|-2--------|
|-----------5-3-1-|-5-4-3-2-4-3-2-1-|-0--------|


  PM----------------|            PM----------------|    PM  PM--|
  E E E E E E E E   Q  H.        E E E E E E E E   Q  E E E E E E
|-----------------|------------|-----------------|----------------|
|-----------------|------------|-----------------|----------------|
|-5-4-2-----------|------------|-5-4-2-----------|----------------|
|-3-2-0-5-4-------|------------|-3-2-0-5-4-------|----------------|
|-------3-2-5-3-5-|-2----------|-------3-2-5-3-5-|-2----2---2-2-2-|
|-----------3-1-3-|-0----------|-----------3-1-3-|-0----0---0-0-0-|


  PM------------------------|   PM----|   PM----------------------|         PM
  E E E E E E E E   E S S S S E S S S S E S S   E E E E E E E E   Q  H    E E
|-----------------|---------------------------|-----------------|--------------|
|-----------------|---------------------------|-----------------|--------------|
|-5-4-2-----------|---------------------------|-5-4-2-----------|--------------|
|-3-2-0-5-4-------|---------------------------|-3-2-0-5-4-------|--------------|
|-------3-2-5-3-5-|-2---------2---------2-----|-------3-2-5-3-5-|-2------------|
|-----------3-1-3-|-0-0-0-0-0-0-0-0-0-0-0-0-0-|-----------3-1-3-|-0---------3--|


    PM  PM  PM|     PM  PM   PM
  E E E E E E E E   E E E Q  E E E
|-----------------|----------------|
|-----------------|----------------|
|-----------------|----------------|
|-----------------|----------------|
|-4---3---1-----4-|---3---1----4---|
|---3---3---3-3---|-3---3----3---3-|


    PM  PM|    PM----------|   PM----|       PM
  E E E E E Q  S S   S S S S E S S S S S S E E
|------------------|---------------------------|
|------------------|---------------------------|
|------------------|---------------------------|
|------------------|---------3-------------3---|
|-3---1-----4------|---------1-------------1---|
|---3---3-3----2-2-|-2-2-2-2---2-2-2-2-2-2---3-|


    PM  PM  PM|     PM  PM   PM        PM  PM|    PM----------|   PM------|
  E E E E E E E E   E E E Q  E E E   E E E E E Q  S S   S S S S E E E E E E
|-----------------|----------------|------------------|----------------------
|-----------------|----------------|------------------|----------------------
|-----------------|----------------|------------------|----------------------
|-----------------|----------------|------------------|----------------------
|-4---3---1-----4-|---3---1----4---|-3---1-----4------|----------------------
|---3---3---3-3---|-3---3----3---3-|---3---3-3----1-1-|-1-1-1-1-1-1-1-1-1-1--


                           PM------|
     E q  q  q  e   +e  q  E E E E E
||----------------|------------------|
||o---------------|------------------|
||----------------|------------------|
||--10-9--7--9----|------------------|
||o--8-7--5--7--5-|-(5)-7------------|
||--------------3-|-(3)-5--0-3-5-3-0-|


              PM----|     PM  PM    PM
   E q  q  q  S S   S S S S E S S S S Q  +E   4x
|-----------------|---------------------------||
|-----------------|--------------------------o||
|-----------------|---------------------------||
|-10-9--7--9------|---------------------------||
|--8-7--5--7------|---------5---------5--(5)-o||
|-------------3-3-|-3-3-3-3-3-3-3-3-3-3--(3)--||


  Q=80
  S S S S S S S S S S S S S S S S
|---------------------------------|
|---------------------------------|
|---------------------------------|
|-3-2-----------------------------|
|-----5-3-2-----------------------|
|-----------5-3-1-5-4-3-2-4-3-2-1-|


  Q=120
  PM--|               PM--|
  E S S S E S Q  Q    E S S S E S E S S Q
|-------------------|----------------------|
|-------------------|----------------------|
|-------------------|----------------------|
|-------9S5------7--|-------9S5---------9--|
|-------7S3------5--|-------7S3---------7--|
|-0-0-0-----0-0-----|-0-0-0-----0-0-0-0----|


  PM--|
  E S S S E S Q  Q    S S S S S S S S S S S S S S S S
|-------------------|---------------------------------|
|-------------------|---------------------------------|
|-------------------|---------------------------------|
|-------9S5------7--|-3-2-----------------------------|
|-------7S3------5--|-----5-3-2-----------------------|
|-0-0-0-----0-0-----|-----------5-3-1-5-4-3-2-4-3-2-1-|


  Q=220
  PM--------------------------------------------------------|
  S S S S S S S S S S S S S S S S   S S S S S S S S S S S S Q
|---------------------------------|-----------------------------
|---------------------------------|-----------------------------
|---------------------------------|-----------------------------
|---------------------------------|-------------------------4---
|---------------------------------|-------------------------2---
|-0-0-0-0-0-0-0-0-0-0-0-0-0-0-0-0-|-0-0-0-0-0-0-0-0-0-0-0-0-----


    PM--------------------------------------------------------|
    S S S S S S S S S S S S S S S S   S S S S S S S S S S S S Q
||----------------------------------|-----------------------------||
||o---------------------------------|----------------------------o||
||----------------------------------|-----------------------------||
||----------------------------------|-------------------------5---||
||o---------------------------------|-------------------------3--o||
||--0-0-0-0-0-0-0-0-0-0-0-0-0-0-0-0-|-0-0-0-0-0-0-0-0-0-0-0-0-----||


                                      Q=150
  E E E E E E E E   E E E E E E E E   Q  H.
|-----------------|-----------------|----------*|
|-----------------|-----------------|----------*|
|-----------------|-----------------|----------*|
|-3-2-------------|-----------------|----------*|
|-----5-3-2-------|-----------------|-2--------*|
|-----------5-3-1-|-5-4-3-2-4-3-2-1-|-0--------*|
Related for Over And Out tab
Advertisement will be closed in 10 seconds