Song name
# A B C D E F G H I J K L M N O P Q R S T U V W X Y Z

Pantera - Forever Tonight tab

                          "forever Tonight"
                               Pantera
                            I am The Night


guitar:I repeat 4x intro: tap harmonics: clean guitar
---------------------------------------------------------------------------------|
-------(18)-5-------(18)-5------------(17)-4-------------(15)-2------------(19)-4|
--------------------------------(17)-4-------------(15)-2-------------(19)4------|
(19)-6-------(19)-6-------(17)-4-------------(15)-2-------------(19)-4-----------|
---------------------------------------------------------------------------------|
---------------------------------------------------------------------------------|
guitar:II
-----------------------------------------------------------------------------|
---------5--4-4----------5--4-4----------5--4-4---------5--4-4---------------|
--4-4----4--4-4---4-4----4--4-4---2-2----4--4-4---2-2---4--4-4---------------|
--4-4----4--4-4---4-4----4--4-4---2-2----4--4-4---2-2---4--4-4---------------|
--6-6--0----------6-6--0----------0-0--0----------0-0--0---------------------|
-----------------------------------------------------------------------------|
      p.m.            p.m.            p.m.            p.m.

guitar:I distortion.solo: slow tempo.
-------------------------12h13p12------12------------------------------------|
----------------------------------13--------13-------13b1--------------------|
--------------------14---------------------------12--------------------------|
-----------------------------------------------------------------------------|
-----------------------------------------------------------------------------|
-----------------------------------------------------------------------------|

guitar:II
-----------------------------------------------------------------------------|
---------5--4-4----------5--4-4----------5--4-4---------5--4-4---------------|
--4-4----4--4-4---4-4----4--4-4---2-2----4--4-4---2-2---4--4-4---------------|
--4-4----4--4-4---4-4----4--4-4---2-2----4--4-4---2-2---4--4-4---------------|
--6-6--0----------6-6--0----------0-0--0----------0-0--0---------------------|
-----------------------------------------------------------------------------|
      p.m.            p.m.            p.m.            p.m.
guitar:I
-------------------------12h13p12------12------------------------------------|
----------------------------------13--------13-------15p13-------------------|
--------------------14---------------------------12--------------------------|
-----------------------------------------------------------------------------|
-----------------------------------------------------------------------------|
-----------------------------------------------------------------------------|
guitar:II
-----------------------------------------------------------------------------|
---------5--4-4----------5--4-4----------5--4-4---------5--4-4---------------|
--4-4----4--4-4---4-4----4--4-4---2-2----4--4-4---2-2---4--4-4---------------|
--4-4----4--4-4---4-4----4--4-4---2-2----4--4-4---2-2---4--4-4---------------|
--6-6--0----------6-6--0----------0-0--0----------0-0--0---------------------|
-----------------------------------------------------------------------------|
guitar:II
-----------------------------------------------------------------------------|
---------5--4-4----------5--4-4----------5--4-4------------5--4-4------------|
--4-4----4--4-4---4-4----4--4-4---2-2----4--4-4------2-2---4--4-4------------|
--4-4----4--4-4---4-4----4--4-4---2-2----4--4-4-5/4--2-2---4--4-4------------|
--6-6--0----------6-6--0----------0-0--0-------------0-0--0------------------|
-----------------------------------------------------------------------------|
guitar:II
-----------------------------------------------------------------------------|
-----------------------------------------------------------------------------|
-----------------------------------------------------------------------------|
-----------------------------------------------------------------------------|
--------2-4-(6)-4-6-(7)-6-7-9p7-9/11~~12-11-(9)------------------------------|
-----2~----------------------------------------------------------------------|

-----------------------------------------------------------------------------|
-----------------------------------------------------------------------------|
-----------------------------------------------------------------------------|
-----------------------------------------------------------------------------|
--------2-4-(6)-4-6-(7)-6-7-9p7-9/11-12-11-12-11-12-11-12-11-12--------------|
-----2~----------------------------------------------------------------------|
chorus:repeat 4x
---------------------------------------------------------------------------------|
-------(18)-5-------(18)-5------------(17)-4-------------(15)-2------------(19)-4|
--------------------------------(17)-4-------------(15)-2-------------(19)4------|
(19)-6-------(19)-6-------(17)-4-------------(15)-2-------------(19)-4-----------|
---------------------------------------------------------------------------------|
---------------------------------------------------------------------------------|

-----------------------------------------------------------------------------|
---------5--4-4----------5--4-4----------5--4-4---------5--4-4---------------|
--4-4----4--4-4---4-4----4--4-4---2-2----4--4-4---2-2---4--4-4---------------|
--4-4----4--4-4---4-4----4--4-4---2-2----4--4-4---2-2---4--4-4---------------|
--6-6--0----------6-6--0----------0-0--0----------0-0--0---------------------|
-----------------------------------------------------------------------------|
guitar:II
-----------------------------------------------------------------------------|
---------5--4-4----------5--4-4----------5--4-4------------5--4-4------------|
--4-4----4--4-4---4-4----4--4-4---2-2----4--4-4------2-2---4--4-4------------|
--4-4----4--4-4---4-4----4--4-4---2-2----4--4-4------2-2---4--4-4------------|
--6-6--0----------6-6--0----------0-0--0-------------0-0--0------------------|
-----------------------------------------------------------------------------|

guitar:II
-----------------------------------------------------------------------------|
-----------------------------------------------------------------------------|
-----------------------------------------------------------------------------|
-----------------------------------------------------------------------------|
--------2-4-(6)-4-6-(7)-6-7-9p7-9/11~~12-11-(9)------------------------------|
-----2~----------------------------------------------------------------------|

-----------------------------------------------------------------------------|
-----------------------------------------------------------------------------|
-----------------------------------------------------------------------------|
-----------------------------------------------------------------------------|
--------2-4-(6)-4-6-(7)-6-7-9p7-9/11-12-11-12-11-12-11-12-11-12--------------|
-----2~----------------------------------------------------------------------|

chorus:repeat 4x
---------------------------------------------------------------------------------|
-------(18)-5-------(18)-5------------(17)-4-------------(15)-2------------(19)-4|
--------------------------------(17)-4-------------(15)-2-------------(19)4------|
(19)-6-------(19)-6-------(17)-4-------------(15)-2-------------(19)-4-----------|
---------------------------------------------------------------------------------|
---------------------------------------------------------------------------------|

-----------------------------------------------------------------------------|
-----------------------------------------------------------------------------|
-----------------------------------------------------------------------------|
-----------------------------------------------------------------------------|
--------2-4-(6)-4-6-(7)-6-7-9p7-9/11-12-11-12-11-12-11-12-11-12--------------|
-----2~----------------------------------------------------------------------|

solo: i dont have it but i have the rhythm guitar for it.

repeat 4 times. 
-----------------------------------------------------------------------------|
-----------------------------------------------------------------------------|
-----------------------------------------------------------------------------|
--6-6--6-6-6--2-2--4-4-4-----------------------------------------------------|
--4-4--4-4-4--0-0--2-2-2-----------------------------------------------------|
-----------------------------------------------------------------------------|

-----------------------------------------------------------------------------|
-----------------------------------------------------------------------------|
-----------------------------------------------------------------------------|
-----------------------------------------------------------------------------|
--------2-4-(6)-4-6-(7)-6-7-9p7-9/11~~12-11-(9)------------------------------|
-----2~----------------------------------------------------------------------|

-----------------------------------------------------------------------------|
-----------------------------------------------------------------------------|
-----------------------------------------------------------------------------|
-----------------------------------------------------------------------------|
--------2-4-(6)-4-6-(7)-6-7-9------------------------------------------------|
-----2~----------------------------------------------------------------------|

-----------------------------------------------------------------------------|
---------5--4-4----------5--4-4----------5--4-4---------5--4-4---------------|
--4-4----4--4-4---4-4----4--4-4---2-2----4--4-4---2-2---4--4-4---------------|
--4-4----4--4-4---4-4----4--4-4---2-2----4--4-4---2-2---4--4-4---------------|
--6-6--0----------6-6--0----------0-0--0----------0-0--0---------------------|
-----------------------------------------------------------------------------|

-----------------------------------------------------------------------------|
---------5--4-4----------5--4-4----------5--4-4------------5--4-4------------|
--4-4----4--4-4---4-4----4--4-4---2-2----4--4-4------2-2---4--4-4------------|
--4-4----4--4-4---4-4----4--4-4---2-2----4--4-4------2-2---4--4-4------------|
--6-6--0----------6-6--0----------0-0--0-------------0-0--0------------------|
-----------------------------------------------------------------------------|

-----------------------------------------------------------------------------|
-----------------------------------------------------------------------------|
-----------------------------------------------------------------------------|
-----------------------------------------------------------------------------|
--------2-4-(6)-4-6-(7)-6-7-9p7-9/11~~12-11-(9)------------------------------|
-----2~----------------------------------------------------------------------|

-----------------------------------------------------------------------------|
-----------------------------------------------------------------------------|
-----------------------------------------------------------------------------|
-----------------------------------------------------------------------------|
--------2-4-(6)-4-6-(7)-6-7-9p7-9/11-12-11-12-11-12-11-12-11-12--------------|
-----2~----------------------------------------------------------------------|

guitar:I repeat 8x. tap harmonics: clean guitar
---------------------------------------------------------------------------------|
-------(18)-5-------(18)-5------------(17)-4-------------(15)-2------------(19)-4|
--------------------------------(17)-4-------------(15)-2-------------(19)4------|
(19)-6-------(19)-6-------(17)-4-------------(15)-2-------------(19)-4-----------|
---------------------------------------------------------------------------------|
---------------------------------------------------------------------------------|

repeat 8 times. play with the part on top of this one.
-----------------------------------------------------------------------------|
-----------------------------------------------------------------------------|
-----------------------------------------------------------------------------|
--6-6--6-6-6--2-2--4-4-4-----------------------------------------------------|
--4-4--4-4-4--0-0--2-2-2-----------------------------------------------------|
-----------------------------------------------------------------------------|


well thats it except the solo, sorry.but enjoy.
Tap to rate this tab
# A B C D E F G H I J K L M N O P Q R S T U V W X Y Z