Song name
# A B C D E F G H I J K L M N O P Q R S T U V W X Y Z

Pantera - Cant Hide tab

Help us improve GuitareTab! Take a short survey!
Band- Pantera
Song- Cant Hide

standard tuning.
all timing approximate.

intro: bass

------------------------------------------------------------------|
------------------------------------------------------------------|
------------------------------------------------------------------|
-9--9-9-9-9-9-9-9-9-9-9-9-9-9-9--5-5-5-5-5-5-5--2-2-2--0-0-0-0----|

main riff:
-------------------------------------------------------------------|
-------------------------------------------------------------------|
-------------------------------------------------------------------|
-11-x-7--9-x-7-x-6---7--7-7-7-7-7-7--4-4-4--2--2-2-2---------------|
-------------------------7--7-7-7-7-7-7--4-4-4--2--2-2-2-----------|
-------------------------5--5-5-5-5-5-5--2-2-2--0--0-0-0-----------|


chorus:             play 3x                                       end on
-----------------------------------------------------------|
-----------------------------------------------------------|
-----------------------------------------------------------|
4--4-4-4-4-4-4-4--2-3-4--4-4-4-4-4-4-4----2--3-------------|
4--4-4-4-4-4-4-4--2-3-4--4-4-4-4-4-4-4----2--3-------------|
2--2-2-2-2-2-2-2--0-1-2--2-2-2-2-2-2-2----0--1-------------|


riff before solo:
-------------------------------------------------------------------|
-------------------------------------------------------------------|
-------------------------------------------------------------------|
9-9-9-9-9-9-9-9--5-5-5-5-5-5-5-5--9-8-7-6-5-4----------------------|
9-9-9-9-9-9-9-9--5-5-5-5-5-5-5-5--9-8-7-6-5-4----------------------|
7-7-7-7-7-7-7-7--3-3-3-3-3-3-3-3--7-6-5-4-3-2----------------------|

last riff:  Repeat till the end.
-----------|
-----------|
-----------|
-2-2-2-----|
-2-2-2-----|
-0-0-0-----|
Related for Cant Hide tab