Song name
# A B C D E F G H I J K L M N O P Q R S T U V W X Y Z

Pantera - Death Trap tab

-------------------------------------------------------------------------------
			     Death Trap - Pantera
-------------------------------------------------------------------------------
Tabbed by:J450N
Email: jasonphillips34@hotmail.com

Tuning:Standard

e|---------------------------|
B|---------------------------|
G|---------------------------|
D|----3-------5--2--55257----|
A|----1--5----3--0--33035----|
E|-000-003-000-00-00---------|

e|---------|
B|---------|
G|-PM------|
D|-55-55---|
A|-55-55---|
E|-33-33---|


| /  slide up
| \  slide down
| h  hammer-on
| p  pull-off
| ~  vibrato
| +  harmonic
| x  Mute note
===============================================================================
Tap to rate this tab
# A B C D E F G H I J K L M N O P Q R S T U V W X Y Z