Song name
# A B C D E F G H I J K L M N O P Q R S T U V W X Y Z

Pantera - Metal Magic tab

Band - PANTERA
Album - Metal Magic(1983)
Song - Metal Magic


E|-------------------------------------------------------------------|
B|-------------------------------------------------------------------|
G|----------------------------3--------------------------------------|
D|-5-5--5-5---5-5--5-5---5-5--3--------------------------------------| x7
A|-5-5--5-5---5-5--5-5---5-5--1--------------------------------------|
E|-3-3--3-3---3-3--3-3---3-3-----------------------------------------|

   First Guitar
E|-------------------------------------------------------------------|
B|-------------------------------------------------------------------|
G|----------------------------3--------------------------------------|
D|-5-5--5-5---5-5--5-5---5-5--3--------------------------------------|
A|-5-5--5-5---5-5--5-5---5-5--1--------------------------------------|
E|-3-3--3-3---3-3--3-3---3-3-----------------------------------------|

   Second Guitar
E|-------------------------------------------------------------------|
B|-------------------------------------------------------------------|
G|-------------------------------------------------------------------|
D|-5-----------------------------------------------------------------|
A|-5-----------------------------------------------------------------|
E|-3-----------------------------------------------------------------|


  First Guitar
E|-------------------------------------------------------------------|
B|-------------------------------------------------------------------|
G|----------------------------3--------------------------------------|
D|-5-5--5-5---5-5--5-5---5-5--3--------------------------------------|
A|-5-5--5-5---5-5--5-5---5-5--1--------------------------------------|
E|-3-3--3-3---3-3--3-3---3-3-----------------------------------------|


   Second Guitar
E|-------------------------------------------------------------------|
B|-------------------------------------------------------------------|
G|-3-----------------------------------------------------------------|
D|-3-----------------------------------------------------------------|
A|-1-----------------------------------------------------------------|
E|-------------------------------------------------------------------|


  First Guitar
E|-------------------------------------------------------------------|
B|-------------------------------------------------------------------|
G|----------------------------5--------------------------------------|
D|-5-5--5-5---5-5--5-5---5-5--5--------------------------------------|
A|-5-5--5-5---5-5--5-5---5-5--3--------------------------------------|
E|-3-3--3-3---3-3--3-3---3-3-----------------------------------------|

   Second Guitar
E|-------------------------------------------------------------------|
B|-------------------------------------------------------------------|
G|-2--------------------------5-5------------------------------------|
D|-2--------------------------5-5------------------------------------|
A|-0--------------------------3-3------------------------------------|
E|-------------------------------------------------------------------|


E|------------------------------------------------------------------|
B|------------------------------------------------------------------|
G|----------------------3--------------------------6-6--------------|
D|-5-5-5-5-5-5-5-5-5-5--3-----5-5-5-5-5-5-5-5-5-5--6-6--------------|
A|-5-5-5-5-5-5-5-5-5-5--1-----5-5-5-5-5-5-5-5-5-5--4-4--------------|
E|-3-3-3-3-3-3-3-3-3-3--------3-3-3-3-3-3-3-3-3-3-------------------|


E|------------------------------------------------------------------|
B|------------------------------------------------------------------|
G|----------------------3--------------------------5----------------|
D|-5-5-5-5-5-5-5-5-5-5--3-----5-5-5-5-5-5-5-5-5-5--5----------------|
A|-5-5-5-5-5-5-5-5-5-5--1-----5-5-5-5-5-5-5-5-5-5--3----------------|
E|-3-3-3-3-3-3-3-3-3-3--------3-3-3-3-3-3-3-3-3-3-------------------|


E|-------------------------------------------------------------------|
B|-------------------------------------------------------------------|
G|----------------------5--------------------------8-----------------|
D|-7-7-7-7-7-7-7-7-7-7--5-----7-7-7-7-7-7-7-7-7-7--8-----------------|
A|-7-7-7-7-7-7-7-7-7-7--3-----7-7-7-7-7-7-7-7-7-7--6-----------------|
E|-5-5-5-5-5-5-5-5-5-5--------5-5-5-5-5-5-5-5-5-5--------------------|

E|-------------------------------------------------------------------|
B|-------------------------------------------------------------------|
G|----------------------3--------------------------6-6---------------|
D|-5-5-5-5-5-5-5-5-5-5--3-----5-5-5-5-5-5-5-5-5-5--6-6---------------|
A|-5-5-5-5-5-5-5-5-5-5--1-----5-5-5-5-5-5-5-5-5-5--4-4---------------|
E|-3-3-3-3-3-3-3-3-3-3--------3-3-3-3-3-3-3-3-3-3--------------------|

E|-------------------------------------------------------------------|
B|-------------------------------------------------------------------|
G|-5-5--6-9-9-9-9-9-9-9-9-9------------------------------------------|
D|-5-5--6-9-9-9-9-9-9-9-9-9------------------------------------------|
A|-3-3--4-7-7-7-7-7-7-7-7-7------------------------------------------|
E|-------------------------------------------------------------------|


E|------------------------------------------------------------------|
B|------------------------------------------------------------------|
G|----------------------3--------------------------6-6--------------|
D|-5-5-5-5-5-5-5-5-5-5--3-----5-5-5-5-5-5-5-5-5-5--6-6--------------|
A|-5-5-5-5-5-5-5-5-5-5--1-----5-5-5-5-5-5-5-5-5-5--4-4--------------|
E|-3-3-3-3-3-3-3-3-3-3--------3-3-3-3-3-3-3-3-3-3-------------------|


E|------------------------------------------------------------------|
B|------------------------------------------------------------------|
G|----------------------3--------------------------5----------------|
D|-5-5-5-5-5-5-5-5-5-5--3-----5-5-5-5-5-5-5-5-5-5--5----------------|
A|-5-5-5-5-5-5-5-5-5-5--1-----5-5-5-5-5-5-5-5-5-5--3----------------|
E|-3-3-3-3-3-3-3-3-3-3--------3-3-3-3-3-3-3-3-3-3-------------------|

E|-------------------------------------------------------------------|
B|-------------------------------------------------------------------|
G|----------------------5--------------------------8-----------------|
D|-7-7-7-7-7-7-7-7-7-7--5-----7-7-7-7-7-7-7-7-7-7--8-----------------|
A|-7-7-7-7-7-7-7-7-7-7--3-----7-7-7-7-7-7-7-7-7-7--6-----------------|
E|-5-5-5-5-5-5-5-5-5-5--------5-5-5-5-5-5-5-5-5-5--------------------|

E|-------------------------------------------------------------------|
B|-------------------------------------------------------------------|
G|----------------------3--------------------------6-6---------------|
D|-5-5-5-5-5-5-5-5-5-5--3-----5-5-5-5-5-5-5-5-5-5--6-6---------------|
A|-5-5-5-5-5-5-5-5-5-5--1-----5-5-5-5-5-5-5-5-5-5--4-4---------------|
E|-3-3-3-3-3-3-3-3-3-3--------3-3-3-3-3-3-3-3-3-3--------------------|

E|-------------------------------------------------------------------|
B|-------------------------------------------------------------------|
G|-5-5--6-9-9-9-9-9-9-9-9-9------------------------------------------|
D|-5-5--6-9-9-9-9-9-9-9-9-9------------------------------------------|
A|-3-3--4-7-7-7-7-7-7-7-7-7------------------------------------------|
E|-------------------------------------------------------------------|


E|-------------------------------------------------------------------|
B|-------------------------------------------------------------------|
G|-------------------------------------------------------------------|
D|-------------------------------------------------------------------|
A|-3-3-3-3-2-2-2-2-6-6-6-6-5-5-5-5-----------------------------------|
E|-------------------------------------------------------------------|


E|-8h5p8--8h5p8--8h5p8/10/12/14/15/17/19/21-21~-21~-21~~~------------|
B|-------------------------------------------------------------------|
G|-------------------------------------------------------------------|
D|-------------------------------------------------------------------|
A|-------------------------------------------------------------------|
E|-------------------------------------------------------------------|
Tap to rate this tab
# A B C D E F G H I J K L M N O P Q R S T U V W X Y Z