Guitaretab - guitar tabs
Song name
# A B C D E F G H I J K L M N O P Q R S T U V W X Y Z

Pantera - Youve Got To Belong tab

Title: You've Got to Belong to It
Album: Reinventing The Steel
Artist: Pantera


  Intro:
E|---------------------------------------------|
B|---------------------------------------------|
G|---------------------------------------------|
D|----^----------------------------------------|
A|----^----------------------------------------|
E|---3b---3br---3br---3br---3br---3br----------|

  Main Riff:                               Fig 1
Fig 2
E|-------------------17-14---------------||---0/---||---17\---||
B|-------------------------17-14---------||---0/---||---17\---||
G|-------------------------------17-16---||--------||---------||
D|---------------------------------------||--------||---------||
A|---------------------------------------||--------||---------||
E|----2-2-2-2-2-2------------------------||--------||---------||
      p.m........    oct..............       oct
 oct


  Verse:
E|-------------------------------------------|
B|-------------------------------------------|
G|-----------------------------11b-11b--6b---|
D|-----------------------------11b-11b--6b---|
A|---4----4--7--4----------------------------|
E|---2----2--5--2----------------------------|
     p.m.........              oct........

  Chorus 1:                           End Chorus
E|----------------------------------||----------------||
B|----------------------------------||----------------||
G|----------------------------------||----------------||
D|----------------------------------||----------------||
A|----------------------------------||---5--6--6--8---||
E|---5br--5br--5br--5br--5br-6br----||---3--4--4--6---||

                                         p.m.......

  Chorus 2:                           End Chorus
E|----------------------------------||----------------||
B|----------------------------------||----------------||
G|----------------------------------||----------------||
D|----------------------------------||----------------||
A|----------------------------------||---5--6--6--8---||
E|---7br--7br--7br--7br--7br-8br----||---3--4--4--6---||

                                         p.m.......
[ Tab from: http://www.guitaretab.com/p/pantera/75480.html ]
  Bridge 1:                    Bridge 2:
E|---------------------------||------------------------------------|
B|---------------------------||------------------------------------|
G|---------------------------||------------------------------------|
D|---------------------------||----------------------4b--4b--------|
A|---4---4---4-4---4-4-4-4---||------------------------------3br---|
E|---2---2---2-2---2-2-2-2---||----2--2--2--5--2--2----------------|
     p.m...........................................


E|--------------------------------||
B|--------------------------------||
G|--------------------------------||
D|------------------4b--4b--------||
A|---4-----x--x--x----------3br---||
E|---2-----x--x--x----------------||
     p.m..........


  Outro:
E|-----------------17-14--------------|----------------17-14--------------|
B|-----------------------17-14--------|----------------------17-14--------|
G|-----------------------------17-16--|----------------------------17-16--|
D|------------------------------------|-----------------------------------|
A|------------------------------------|-----------------------------------|
E|---2---2-2-2-2----------------------|--2-2-2-2-2-2----------------------|
     p.m........   oct..............     p.m........
oct..............


                                        Fill 3
     Fill 4
E|-----------------17-14--------------||----12------15---||---24~~~~~~---||
B|-----------------------17-14--------||----12------15---||--------------||
G|-----------------------------17-16--||-----------------||--------------||
D|------------------------------------||-----------------||--------------||
A|------------------------------------||-----------------||--------------||
E|---2-2-2-2-2-2----------------------||-----------------||--------------||
     p.m........   oct..............
oct.................w/bar


  Ending:
E|-----------------------|
B|-----------------------|
G|-----------------------|
D|-----------------------|
A|---4----8----11---4----|
E|---2----6----9----2----|

Proggression:

1.Intro
2.Main Riff 3 times with fig 1
3.Main Riff 3 times with fig 2
4.Verse 8 times
5.Intro
6.Chorus 1 with end chorus
7.Main Riff 3 times with fig 1
8.Main Riff 3 times with fig 2
9.Verse 8 times
10.Intro
11.Chorus 1 with end chorus
12.Chorus 2 with end chorus
13.Main Riff 3 times with fig 1
14.Main Riff 3 times with fig 2
15.Bridge 1 (with noises)
16.Bridge 2
17.Chorus 1 with end chorus
18.Chorus 2 with end chorus
19.Main Riff 3 times with fig 1
20.Main Riff 3 times with fig 2
21.Outro with fig 3
22.Outro with fig 4
23.Ending
-----------------------------------------
h.....Hammer-On
p.....Pull-Off
t.....Tapping
N.H...Natural Harmonic
A.H...Artificial Harmonic
P.M...Palm Mute
/.....Slide Up
\.....Slide Down
b.....Bend
r.....Release
oct...Octave Higher
^.....Higher Bend

Yeah...........................thats it
Related for Youve Got To Belong tab
Advertisement will be closed in 10 seconds