Song name
# A B C D E F G H I J K L M N O P Q R S T U V W X Y Z

Paola And Chiara - Vamos A Bailar tab



E|----------5---------8--6-5--6--5-------------|
B|-----5-6-----8---------------------8---6-----|
G|--7------------------------------------------|
D|---------------------------------------------|
A|---------------------------------------------|
E|---------------------------------------------|


E|----------5---------5------------------------|
B|-----5-6-----8---------8--6--5h6p5-----------|
G|--7---------------------------------7--------|
D|---------------------------------------------|
A|---------------------------------------------|
E|---------------------------------------------|
Tap to rate this tab
# A B C D E F G H I J K L M N O P Q R S T U V W X Y Z