Song name
# A B C D E F G H I J K L M N O P Q R S T U V W X Y Z

Paolo Conte - Via Con Me Its Wonderful chords

Highlighted       Show chord diagrams
Via con me  (It's wonderful)  by Paolo Conte


-Accordi interpretati e scritti da Eclecticfranz-
-Chords interpratation write by EclecticFranz

G-  D7  G-  D7   -ritmo terzinato-

G-     D7
Via, via,
             G- D7
vieni via di qui
              G-                 D7
niente pił ti lega a questi luoghi
               G-          D7
neanche questi fiori azzurri
G-    D7
Via, via,
                 G-   D7
neanche questo tempo grigio
              G- D7
pieno di musiche
                   G-        GMaj
e di uomini che ti son piaciuti


     C-            G7
It's wonderful, it's wonderful,
     Ab7             GMaj
it's wonderful, good luck my baby
     C-           G7
It's wonderful, it's wonderful,
    Ab7         D7
it's wonderful, I dream of you
G-        D7            G-
Chips chips, duddudududł,
             D7          G-
ci bu ci bum bum, duddudududł
             D7          G-
ci bu ci bum bum, duddudududł

      -arpeggino-
E-----------------------------|
A-----------------------------|
D----5------------------------|
G------3----------------------|
B--------3--------------------|
e----------3------6-----3-----|


G-      D7
Via, via,
vieni via con me
entra in questo amore buio
non perderti per niente al mondo

Via, via,
non perderti per niente al mondo
lo spettacolo d'arte varia,
di uno innamorato di te

It's wonderful...


--------------------------------------
I make the chords like the tab below
The D7 would to be strange but is for a fast
chord changing and it has a good effect
----------------------------------------

     G-       D7         C-   G7   Ab7   GMaj
E----3--------3----------3----3-----4----3-|
A----3--------3----------4----3-----4----3-|
D----3--------5----------5----4-----5----4-|
G----5--------4----------5----3-----4----5-|
B----5--------5----------3----5-----6----5-|
e----3--------3----------3----3-----4----3-|

This is my interpretation of the chords and I make the song in this mode.
All the critically comments and mistakes founded are welcomed.
Join it
EclecticFranz
Tap to rate this tab
# A B C D E F G H I J K L M N O P Q R S T U V W X Y Z