Song name
# A B C D E F G H I J K L M N O P Q R S T U V W X Y Z

Paolo Nutini - Growing Up Beside You tab

-------------------------------------------------------------------------------
			     GROWING UP BESIDE YOU - Paolo Nutini
-------------------------------------------------------------------------------
Tabbed by:Ollie Smith
Email: cheese_bean@hotmail.co.uk

Tuning: Standard

Growing Up Beside You- Sunny Side Up- Paolo Nutini

Intro - harmonica G G C D x4

Guitar 1
|------------------------------| this bit is called Riff 1
|------------------------------|
|------------------------------| x2
|------------------------------|
|--5-2-0-0/2-2----5-2-0-0/2----|
|-3-------------3-----------3--|

Verse
 this part is always strummed on the off beat so on beats 2+4 of the bar
|-3-3-3-3-3-3-3-3-3-3-3-3-3-3-3-3-3-3-3-3-3-3-3-3-|
|-3-3-3-3-3-3-3-3-3-3-3-3-3-3-3-3-5-5-5-5-5-5-5-5-|
|-4-4-4-4-4-4-4-4-4-4-4-4-4-4-4-4-5-5-5-5-5-5-5-5-|
|-5-5-5-5-5-5-5-5-5-5-5-5-5-5-5-5-5-5-5-5-5-5-5-5-|
|-5-5-5-5-5-5-5-5-5-5-5-5-5-5-5-5-3-3-3-3-3-3-3-3-|
|-3-3-3-3-3-3-3-3-3-3-3-3-3-3-3-3-----------------|

2nd guitar in the verse
e|-3h5p3-3-------------|
B|---------5-3h5p3-----|
G|-----------------4---|
D|---------------------|
A|---------------------|
E|---------------------|

|------------------------------|
|------------------------------|
|------------------------------|
|------------------------------|
|--5-2-0-0/2-2----5-2-0-0/2----|
|-3-------------3-----------3--|

|-3-3-3-3-3-3-3-3-3-3-3-3-3-3-3-3-3-3-3-3-3-3-3-3-|
|-3-3-3-3-3-3-3-3-3-3-3-3-3-3-3-3-5-5-5-5-5-5-5-5-|
|-4-4-4-4-4-4-4-4-4-4-4-4-4-4-4-4-5-5-5-5-5-5-5-5-|
|-5-5-5-5-5-5-5-5-5-5-5-5-5-5-5-5-5-5-5-5-5-5-5-5-|
|-5-5-5-5-5-5-5-5-5-5-5-5-5-5-5-5-3-3-3-3-3-3-3-3-|
|-3-3-3-3-3-3-3-3-3-3-3-3-3-3-3-3-----------------|

|---------10-----------------------10--------------|
|-12-10-8----8-10-8-10-12--12-10-8----8-10/12\10-8-|
|--------------------------------------------------| this bit is called Riff 2
|--------------------------------------------------|
|--------------------------------------------------|
|--------------------------------------------------|

Chorus
|-3-3-3-3-3-3-3-3-3-3-3-3-3-3-3-3-3-3-3-3-3-3-3-3-|
|-3-3-3-3-3-3-3-3-3-3-3-3-3-3-3-3-5-5-5-5-5-5-5-5-|
|-4-4-4-4-4-4-4-4-4-4-4-4-4-4-4-4-5-5-5-5-5-5-5-5-|
|-5-5-5-5-5-5-5-5-5-5-5-5-5-5-5-5-5-5-5-5-5-5-5-5-|
|-5-5-5-5-5-5-5-5-5-5-5-5-5-5-5-5-3-3-3-3-3-3-3-3-|
|-3-3-3-3-3-3-3-3-3-3-3-3-3-3-3-3-----------------|

Over the chorus, guitar 2 plays Riff 2 pretty much until the end of the song

Then guitar 1 plays Riff 1

|-3-3-3-3-3-3-3-3-3-3-3-3-3-3-3-3-3-3-3-3-3-3-3-3-|
|-3-3-3-3-3-3-3-3-3-3-3-3-3-3-3-3-5-5-5-5-5-5-5-5-|
|-4-4-4-4-4-4-4-4-4-4-4-4-4-4-4-4-5-5-5-5-5-5-5-5-|
|-5-5-5-5-5-5-5-5-5-5-5-5-5-5-5-5-5-5-5-5-5-5-5-5-|
|-5-5-5-5-5-5-5-5-5-5-5-5-5-5-5-5-3-3-3-3-3-3-3-3-|
|-3-3-3-3-3-3-3-3-3-3-3-3-3-3-3-3-----------------|

Then guitar 1 plays Riff 1

for the rest of the song Riff 1 and Riff 2 are played on and off until the last 4 bars 
is just vocals and bass

| /  slide up
| \  slide down
| h  hammer-on
| p  pull-off
| ~  vibrato
| +  harmonic
| x  Mute note
===============================================================================
Tap to rate this tab
 
# A B C D E F G H I J K L M N O P Q R S T U V W X Y Z