Song name
# A B C D E F G H I J K L M N O P Q R S T U V W X Y Z

Paolo Nutini - Pencil Full Of Lead tab

e--------------------------------5--------5----------------------5--------|
b-8-5---5-8p5--5--8-5---5-8p5--5---8-5-8p5-8-5-8p58-5---5-8p5--5---8/10-8-|
g-----7--7---77-7-----7--7---77-7---------------------7--7---77-7---------|
d-------------------------------------------------------------------------|
a-------------------------------------------------------------------------|
e-------------------------------------------------------------------------|

e---------------------|
b----5-8--5(sb)-8p5-5-|
g-7h8----7-----7---7--|
d---------------------|
a---------------------|
e---------------------|

i know it's not actually a guitar part, but sounds great on a steel string acoustic. any 
or suggestions e-mail me - mole-man22@hotmail.com
Tap to rate this tab
# A B C D E F G H I J K L M N O P Q R S T U V W X Y Z