Song name
# A B C D E F G H I J K L M N O P Q R S T U V W X Y Z

Paolo Nutini - Jenny Dont Be Hasty tab

To be Honest I don't know what all of the chords are named off-hand, but to be fair, 
that really matter? "yeah."

I think this tab is pretty much there . . . . But any suggestions on improving it will 
appreciated. .  . . enjoy!

~INTRO~
e|-------------------------------------------||
B|---------------------------------22222222--||
G|-------------------------2222222222222222--||
D|-----------------444444444444444444444444--||
A|---------44444444444444444444444444444444--||
E|-2222222222222222222222222222222222222222--||

~VERSE~
e|-------------------2--x--2---2--x--2-----|
B|-2--x--5---5---5---3--x--2h3-3--x--2h4---|
G|-2--x--6 h 7---6---2--x--2---2--x--2-----|
D|-4--x--7---7---7---4--x--2h4-4--x--2h3---|
A|-4--x-(0)-(0)-(0)--2--x--2---2--x--2-----|
E|(2)--------------------------------------|

e|-------------------------|
B|-2-2---------------------|
G|-2-2-(2)--2--------------|
D|-2-2--2---4--------------|
A|-0-0--2---4-------0------|
E|------0--(2)--0-2---2-0--|

~CHORUS~
e|----------------------------------------2-2-x-2-2--|
B|--5-x-5--5-x-5--5-x-5--5--5--2-x-2--2-x-3-3-x-3-3--|
G|--6-x-6--6-x-6--6-x-6--6--7--2-x-2--2-x-2-2-x-2-2--|
D|--7-x-7--7-x-7--7-x-7--7--7--4-x-4--4-x-0-0-x-0-0--|
A|--7-x-7--7-x-7--7-x-7--7-(0)-4-x-4--4-x------------|
E|-(5)x(5)(5)x(5)(5)x(5)(5)---(2)x(2)(2)x------------|

~2nd & 3rd CHORUS ENDING'S~
e|------------(0)(0)-(0)(0)x-2-2-x-2-2-x-2-2-x-2-2-x-0----|
B|--5-x-5--5-x-0--0-x-0--0-x-3-3-x-3-3-x-3-3-x-3-3-x-0----|
G|--6-x-6--6-x-1--1-x-1--1-x-4-4-x-4-4-x-2-2-x-2-2-x-1----|
D|--7-x-7--7-x-2--2-x-2--2-x-4-4-x-4-4-x-0-0-x-0-0-x-2----|
A|--7-x-7--7-x-2--2-x-2--2-x-2-2-x-2-2-x-----x-----x-2----|
E|-(5)x(5)(5)x(0)(0)x(0)(0)x-----x-----x-----x---=-x-0----|

so listen along and you'll get there . . . . .

Thanks .. ..
Tap to rate this tab
# A B C D E F G H I J K L M N O P Q R S T U V W X Y Z