Guitaretab - guitar tabs
Song name
# A B C D E F G H I J K L M N O P Q R S T U V W X Y Z

Paolo Santos - Without You tab

WITHOUT YOU
Paolo Santos

johnsantos_17@yahoo.com

Standard tuning: (EADGBE)
Capo on 1st fret

Intro:

E--------------------------------0----0-----
B--0--------0------3-------0----3----3-3--3--
G-----2----0--------2-----0----0----2---2-2--
D----0----2--------------2----2----0------0--
A---2----2-------2------2----3---------------
E--3----0-------3------0---------------------

Verse:


E--------------------------------0-------------
B--0--------0------3-------0----3---0--------0-
G-----2----0--------2-----0----0-------2----0--
D----0----2--------------2----2-------0----2--- play 2x
A---2----2-------2------2----3-------2----2----
E--3----0-------3------0------------3----0-----

Chorus:
[ Tab from: http://www.guitaretab.com/p/paolo-santos/130041.html ]
E-----------------------0----
B-3--3--1--0---3--3--1--3----
G-0--0--0--0---0--0--0--2----
D-2--0--2--2---2--0--2--0----
A-3--2--3--2---3--2--0-------
E----------0-----------------

E-------------
B--0--3--3--3-
G--0--2--0--0-
D--2--0--0--2-play 2x
A--2--0--2--3-
E--0--2--3----

feels like i took...

E-------0-----|---------------
B-0--3--3--4--|--1--3--3--4---
G-0--0--0--0--|--0--0--0--0---
D-2--0-----2--|--2--0--2--2---
A-0--2--4--3--|--0--2--3--3---
E-------------|---------------

Bridge:

E------------|------|-------0--
B-0--3--3--3-|-1--3-|-1-3-3-3--
G-0--2--0--0-|-0--0-|-0-0-0-2--
D-2--0--0--2-|-2--0-|-2-0-2-0--
A-2--0--2--3-|-0--2-|-0-2-3----
E-0--2--3----|------|----------

Outro:

E--------------------------------0----0------|-2*-
B--0--------0------3-------0----3----3-3--3--|-0*-
G-----2----0--------2-----0----0----2---2-2--|-0*-
D----0----2--------------2----2----0------0--|-0*-
A---2----2-------2------2----3---------------|-2*-
E--3----0-------3------0---------------------|-3*-

=====()w&_17=====
Related for Without You tab
Without You chords by Paolo Santos