Guitaretab - guitar tabs
Song name
# A B C D E F G H I J K L M N O P Q R S T U V W X Y Z

Paolo Santos - Back To You tab

BACK TO YOU
Paolo Santos

johnsantos_17@yahoo.com

Standard Tuning	(EADGBE)

Intro:

E-------------|-------------|-------------|-------------
B--10-9--10-9-|-9--10-9--10-|-10-9--9--10-|-10-9--10-9--
G--9--9--9--9-|-9--9--9--9--|-9--9--9--9--|-9--9--9--9--
D--7--7--7--7-|-7--7--7--7--|-7--7--------|-7--7--7--7--
A--0--0--0--0-|-9--9--9--9--|-9--9--7--7--|-9--9--9--9--
E-------------|-------------|-7--7--------|-------------

Verse:
"back to you.."
[ Tab from: http://www.guitaretab.com/p/paolo-santos/131156.html ]
E-------------|-------------|-------------|-------------
B--10-9--10-9-|-9--10-9--10-|-10-9--9--10-|-10-9--10-9--
G--9--9--9--9-|-9--9--9--9--|-9--9--9--9--|-9--9--9--9--
D--7--7--7--7-|-7--7--7--7--|-7--7--------|-7--7--7--7--play 2x
A--0--0--0--0-|-9--9--9--9--|-9--9--7--7--|-9--9--9--9--
E-------------|-------------|-7--7--------|-------------

Refrain:
"i'm so good.."

E-0---0-/-0--
B-0---0-/-0--
G-9---9-/-9--play 3x
D-9---7-/-7--
A-7-----/----
E-0---9-/-10-

"i can't turn..."

E-2---0----
B-3---0---
G-2---9----
D-4---9---
A-2---7---
E-----0---

Adlib: Intro

Bridge:

E--0---0---3--
B--0---1---3--
G--9---0---0--
D--9---3---0--
A--7---0---0--
E--0---1---3--

"leave the light on.."

E--0-/-0---0--
B--0-/-0---0--
G--4-/-4---7--play 3x
D--4-/-4---7--
A--0-/-0---5--
E--4-/-5------

"for me to.."

E--0---0---0---0--
B--5---7---0---0--
G--7---9---9---11-
D--7---9---9---11-
A--0---0---7---9--
E--7---9---8---10-

=====w&_17=====
Related for Back To You tab
Back To You chords by Paolo Santos