Guitaretab - guitar tabs
Song name
# A B C D E F G H I J K L M N O P Q R S T U V W X Y Z

Paolo Santos - Love Song For No One tab

LOVE SONG FOR NO ONE
Paolo Santos

johnsantos_17@yahoo.com

Standard Tuning	(EADGBE)
Capo on 2nd fret

Intro:

E--3---3---3---0\0--
B--3---0---1---3\2--
G--0---0---0---0\0--play 2x
D--0---2---0---0\0--
A--0---2---2---2\2--
E--3---3---0--------

Verse:
"staying home alone.."

E--3---3---3---8\8--
B--3---0---1---6\5--
G--0---0---0---0\0--play 2x
D--0---2---3---7\7--
A--0---2---0---0\0--
E--3---3---1---8\8--

Chorus:
"i'm tired of being alone.."

E--3---7---0---0--
B--3---8---8---3--
G--0---7---9---0--
D--0---7---0---0--
A--0---9---7---3--
E--3---7---0------

Adlib:
"get here.."

E--3---3---3---0--
B--3---0---1---2--
G--0---0---0---0--hold
D--0---2---0---0--
A--0---2---2---2--
E--3---3---0------

Refrain:
"i could have met you in a sandbox.."

E-0---0---0--
B-1---1---1--
G-0---0---0--
D-2---0---2--
A-0---2---3--
E------------

"i could have passed you.."
[ Tab from: http://www.guitaretab.com/p/paolo-santos/131159.html ]
E--0---0---0------------
B--1---1---3------------
G--0---0---0------------
D--2---0---2------------
A--0---2---2------------
E-----------------------

"could i have missed.."

E-0---0---0-------------
B-1---1---1-------------
G-0---0---0-------------
D-2---0---2-------------
A-0---2---3-------------
E-----------------------

"and watch you.."

E--0---0---3--|--3-
B--1---1---1--|--1-
G--0---0---0--|--0-continuous
D--2---0---3--|--3-
A--3---2---0--|--0-
E----------1--|--1-

Adlib: same as intro

Coda:
"you'll be so good.."

E--3---7---0---0\0-
B--3---8---8---3\3-
G--0---7---9---0\0-play 2x
D--0---7---0---2\0-
A--0---9---7---3\3-
E--3---7---0-------

Outro:

E--3-23--23--23--323--
B--3-33--33--33--333--
G--0-------------000--play 4x
D--0-------------000--
A--0-------------000--
E--3-------------333--

End at 

E-3--
B-3--
G-0--
D-0--
A-0--
E-3--

=====w&_17=====
Related for Love Song For No One tab