Song name
# A B C D E F G H I J K L M N O P Q R S T U V W X Y Z

Paolo Santos - Waiting In Vain tab

Waiting in vain

Intro:
|----------------------3-------3----|
|----5---5---5---3----5-5-5---5-5-5-|
|---4---4---4---4----5---5---5---5--|
|--5---5---5---5----3-------3-------|
|-3---3---3---3---------------------|
|-----------------------------------|

|------------3-------3-------3------|
|----5--3-----5-----5-5-5---5-5-5---|
|---4--4---4---4---5---5---5---5----|
|--5--5---5-------3-------3---------|
|-3--3---3--------------------------|
|-----------------------------------|

Verse & Chorus:
|----------------------3-------3----| dun sa part na 
|----5---5---5---5----5-5-5---5-5-5-| "coz summer is here"
|---4---4---4---4----5---5---5---5--| bilisan nio na lng
|--5---5---5---5----3-------3-------| ung plucking o strumming
|-3---3---3---3---------------------| nio..
|-----------------------------------|

Outro:
|---------3------------3--------3------3-----3----------|
|----5-----5-5--------5-5-5-----------5-5----5----------|
|---4---4---4--------5---5----5------4---4---4----------|
|--5---5------------3---------3-----5-----5--5----------|
|-3---3-------3-3-------------3----3---------3----------|
|-------------------------------------------------------|
Tabbed by: ALVIN JOSEPH TOLENTINO
Email:ambie_tolentino@yahoo.com
Tap to rate this tab
 
# A B C D E F G H I J K L M N O P Q R S T U V W X Y Z