Song name
# A B C D E F G H I J K L M N O P Q R S T U V W X Y Z

Paolo Santos - Sunshine tab

Sunshine 


Verse:
|--0--4--2--1--0-0--|
|--2--5--2--1--2-2--|
|--1--4--2--2--2-0--|
|--2--6--0--0--2-2--|
|--0--4---------0-0-|
|-------------------|

Pre-chorus:
|--4--5--------4---2--1--|
|--4--5--------4---2--1--|
|--4--5---3x---4---2--2--|
|--4--5--------4---0--0--|
|--6--7--------6---------|
|--4--5--------4---------|

Pre-chorus:

|--4-------------------4--5--4--5--4--------2--1---|
|--4-------------------4--5--4--5--4--------2--1---|
|--4----------4------- 4--5--4--5--4--------2--2---|
|--4--------4----7\---4--5--4--5--4----7\--0--0----|
|--6------6------7\---6--7--6--7--6----7\----------|
|--4--4----------7\---4--5--4--5--4----7\----------|

Outro:

|--0--4--2--1--2--1--0----|
|--2--5--2--1--2--1--2----|
|--1--4--2--2--2--2--2----|
|--2--6--0--0--0--0--2----|
|--0--4----------------0--|
|-------------------------|


sobrng trip na trip ko 2ng kanta na 2 kaya kinapa ko ewn ko lng kng tama..first tab ko
ga pala 2..halos katunog na nito ung kanta kng di kau kuntento sa chords kau na bahala
mg ayos, pero im sure pede na to..enjoy!! thnk you nga pla kay Christian 
Lao(ung kamuka ni papa piolo pascual) pinahirm nia ko ng kanta na 2 kaya nakapa ko..oo
nga pla pki rate ha!!tnx...
ambie_tolentino@yahoo.com
Tap to rate this tab
 
# A B C D E F G H I J K L M N O P Q R S T U V W X Y Z