Song name
# A B C D E F G H I J K L M N O P Q R S T U V W X Y Z

Paolo Santos - Out Of My League tab

Tabbed by: ANGEL BLANCO

Im not really sure about this tab.. pero katunog nman eh.. hehe...

Intro:
|-----8--7-5-3-----------|------8-7-5-3-----7h8-------|
|----------------3--5-3--|------------------7---------|
|----10----------5-----5-|-----10----------7----------|
|--10-----------5--------|---10-----------7-----------|
|-8------------3---------|--8-------------------------|
|------------------------|----------------------------|

|-----8--7-5-3-----------|----0-----------------------|
|----------------3--5-3--|----0-3---------------------|
|----10----------5-----5-|---2------5s4s5-------------|
|--10-----------5--------|--2-------------------------|
|-8------------3---------|----------------------------|
|------------------------|----------------------------|
Tap to rate this tab
 
# A B C D E F G H I J K L M N O P Q R S T U V W X Y Z