Song name
# A B C D E F G H I J K L M N O P Q R S T U V W X Y Z

Paolo Santos - Warrior Is A Child tab

Tabbed by: GLENDELL JUEGO
Email: www.sixstringsounds@hotmail.com
sONG TITLE: WARRIOR IS A CHILD
Tuning: STANDARD TUNING

INTRO: A--    C#m--      D---    E

e|-------------------------------------------------------------|
B|----2--2-----5-5-5-----5-------------------------------------|
G|----2--2-----4-4-4-----x---2----4-------------       repeat--| 2X
D|----2--2-----x-x-------0---0---------------------------------|
A|----0--------4-4---------------------------------------------|
E|--------------------------------0----------------------------|

verse:
    A    C#m7  D  D9
e|---------4---2--0--------------------------|
B|--2-2----5---3--3--------------------------|
G|--2-2----4---2--2--------------------------|
D|--2-2----6---0--0--------------------------|
A|--0-0----4---------------------------------|
E|-------------------------------------------|

REFRAIN:

People say........

    Bm7   C#m7 D      E
e|---2----4----0^2-----0----------------------|
B|---3----5----3-------0----------------------|
G|---2----4----2-------1----------------------|    repeat 2X before chorus
D|---4----6----0-------2----------------------|
A|---2----4------------2----------------------|
E|---------------------0----------------------|


CHORUS: just repeat the intro!
        this is the continuation riff from d'chorus!

e---0----4---------0------2-----4----0^2----0--------|
B---0----5--------0-------3-----5----3------0--------|
g---2----4-------2--------2-----4----2------1--------|
d---2----6------2---------4-----6----0------2--------|
a---x----4----------------2-----4-----------2--------|
e---2---------2-----------------------------0--------|


thats it!!!
enjoy!!
godbless!!
always play with a heart!!!

comments and suggestion are welcomed!!!
Tap to rate this tab
# A B C D E F G H I J K L M N O P Q R S T U V W X Y Z