Song name
# A B C D E F G H I J K L M N O P Q R S T U V W X Y Z

Papa M - Krusty tab

-------------------------------------------------------------------------------
			     KRUSTY - Papa M
-------------------------------------------------------------------------------
Tabbed by: Matt Bamford
Email: elbamfordo@gmail.com

Awesome song from 'Whatever, Mortal' very addictive to play. Can't believe nobody tabbed 
already.

Seems to work quite elegantly in this tuning. I just put the basics in, the overdubbed 
sounds pretty much improvised on the album.

Tuning: CGCEGE (low to high)
e|-------12---------12---------------------------------7---------|
G|---9-----9----9-----9-----0---0---2---5---2---0---9---9---9----|
E|----10----10---10----10----0---0---0---0---0---0---7---7---7---|
C|------0----------0----------------------------------0-------0--|
G|------------0-----------0----0---2-/-5-\-2---0----------0------|
C|--0----------0-----------5-----------------------0-------0-----|

e|-7-----------------------------|
G|--9---0---0---2---5---2---0----|
E|---7---0---0---0---0---0---0---|
C|-------------------------------|
G|----0----0---2-/-5-\-2---0-----|
C|-----5-------------------------|

| /  slide up
| \  slide down
| h  hammer-on
| p  pull-off
| ~  vibrato
| +  harmonic
| x  Mute note
===============================================================================
Tap to rate this tab
# A B C D E F G H I J K L M N O P Q R S T U V W X Y Z