Song name
# A B C D E F G H I J K L M N O P Q R S T U V W X Y Z

Papa Roach - Hollywood Whore tab

---------3-------------------------------------------------------------3------|
----4---------------4----6---------4-----6-----------6--4---------------------|
-5-----5---------4----4---------3-----3-----------5-----------------4---------|
-----------------------------------------------6-----------------5------------|
------------------------------------------------------------------------------|
------------------------------------------------------------------------------|

------------------------------------------------------------------------------|
---------------------------------------------------4-------------4------------|
-5-5---5-7-5-7-9-7---5-7-5-7-9-7-----4-4---4-5-4-5---5---4-5-4-5---5----------|
-5-5---------------------------------4-4--------------------------------------|
-3-3---------------------------------2-2--------------------------------------|
------------------------------------------------------------------------------|

------------------------------------------------------------------------------|
------------------------------------------------------------------------------|
-5-5---4-4---5-5---4-4---5-5---4-4---5-5---4-4--------------------------------|
-5-5---4-4---5-5---4-4---5-5---4-4---5-5---4-4--------------------------------|
-3-3---2-2---3-3---2-2---3-3---2-2---3-3---2-2--------------------------------|
------------------------------------------------------------------------------|

------------------------------------------------------------------------------|
------------------------------------------------------------------------------|
------12^-b-v--------10^-b-v--------------------------------------------------|
-6-6------------6-6------------5-5------------5-5-----------------------------|
-6-6------------6-6------------5-5--5-5-5-5---5-5-----------------------------|
-6-6------------6-6------------5-5------------5-5-----------------------------|

-------------------------------------------------------------------------------|
-------------------------------------------------------------------------------|
-5-5-5-----------------------------------5-5-5---------------------------------|
-5-5-5---5-5-5---6-6-6---3-3-3---5-5-5---5-5-5---5-5-5---6-6-6---3-3-3---5-5-5-|
-3-3-3---5-5-5---6-6-6---3-3-3---5-5-5---3-3-3---5-5-5---6-6-6---3-3-3---5-5-5-|
---------5-5-5---6-6-6---3-3-3---5-5-5-----------5-5-5---6-6-6---3-3-3---5-5-5-|

------------------------------------------------------------------------------|
---------------------------------------------------4-------------4------------|
-5-5---5-7-5-7-9-7---5-7-5-7-9-7-----4-4---4-5-4-5---5---4-5-4-5---5----------|
-5-5---------------------------------4-4--------------------------------------|
-3-3---------------------------------2-2--------------------------------------|
------------------------------------------------------------------------------|

------------------------------------------------------------------------------|
------------------------------------------------------------------------------|
-5-5---4-4---5-5---4-4---5-5---4-4---5-5---4-4--------------------------------|
-5-5---4-4---5-5---4-4---5-5---4-4---5-5---4-4--------------------------------|
-3-3---2-2---3-3---2-2---3-3---2-2---3-3---2-2--------------------------------|
------------------------------------------------------------------------------|

------------------------------------------------------------------------------|
------------------------------------------------------------------------------|
------12^-b-v--------10^-b-v--------------------------------------------------|
-6-6------------6-6-----------------------------------------------------------|
-6-6------------6-6------------5-5-5-5-5-5-5-5-5-5----------------------------|
-6-6------------6-6-----------------------------------------------------------|

-------------------------------------------------------------------------------|
-------------------------------------------------------------------------------|
-5-5-5-----------------------------------5-5-5---------------------------------|
-5-5-5---5-5-5---6-6-6---3-3-3---5-5-5---5-5-5---5-5-5---6-6-6---3-3-3---5-5-5-|
-3-3-3---5-5-5---6-6-6---3-3-3---5-5-5---3-3-3---5-5-5---6-6-6---3-3-3---5-5-5-|
---------5-5-5---6-6-6---3-3-3---5-5-5-----------5-5-5---6-6-6---3-3-3---5-5-5-|

-------------------------------------------------------------------------------|
-------------------------------------------------------------------------------|
-8-8-8-----------8-8-8-------------------5-5-5---3-3-3-----------5-5-5---3-3-3-|
-8-8-8---5-5-5---8-8-8---5-5-5---6-6-6---5-5-5---3-3-3---6-6-6---5-5-5---3-3-3-|
-6-6-6---5-5-5---6-6-6---5-5-5---6-6-6---3-3-3---1-1-1---6-6-6---3-3-3---1-1-1-|
---------5-5-5-----------5-5-5---6-6-6-------------------6-6-6-----------------|

------------------------------------------------------------------------------|
------------------------------------------------------------------------------|
------------------------------------------------------------------------------|
-6-6-6---5-5-5---3-3-3--------------------------------------------------------|
-6-6-6---5-5-5---3-3-3--------------------------------------------------------|
-6-6-6---5-5-5---3-3-3--------------------------------------------------------|

---------3-------------------------------------------------------------3------|
----4---------------4----6---------4-----6-----------6--4---------------------|
-5-----5---------4----4---------3-----3-----------5-----------------4---------|
-----------------------------------------------6-----------------5------------|
------------------------------------------------------------------------------|
------------------------------------------------------------------------------|

---------3-------------------------------------------------------------3------|
----4---------------4----6---------4-----6-----------6--4---------------------|
-5-----5---------4----4---------3-----3-----------5-----------------4---------|
-----------------------------------------------6-----------------5------------|
------------------------------------------------------------------------------|
------------------------------------------------------------------------------|

---------3-----3--------------------------------------------------------------|
----4------4-----4----------4---6--4---6--4--------4---6--4---6--4------------|
-5-----5-----5------------4---4------4-----------3---3------3-----------------|
------------------------------------------------------------------------------|
------------------------------------------------------------------------------|
------------------------------------------------------------------------------|

-------------------------------------------------------------------------------|
-------------------------------------------------------------------------------|
-5-5-5-----------------------------------5-5-5---------------------------------|
-5-5-5---5-5-5---6-6-6---3-3-3---5-5-5---5-5-5---5-5-5---6-6-6---3-3-3---5-5-5-|
-3-3-3---5-5-5---6-6-6---3-3-3---5-5-5---3-3-3---5-5-5---6-6-6---3-3-3---5-5-5-|
---------5-5-5---6-6-6---3-3-3---5-5-5-----------5-5-5---6-6-6---3-3-3---5-5-5-|

-------------------------------------------------------------------------------|
-------------------------------------------------------------------------------|
-5--5--5-------------------------------------------5--5--5---------------------|
-5--5--5---5--5--5---6--6--6---3--3--3---5--5--5---5--5--5---5--5--5---6--6--6-|
-3--3--3---5--5--5---6--6--6---3--3--3---5--5--5---3--3--3---5--5--5---6--6--6-|
-----------5--5--5---6--6--6---3--3--3---5--5--5-------------5--5--5---6--6--6-|

------------------------------------------------------------------------------|
------------------------------------------------------------------------------|
------------------------------------------------------------------------------|
-3-3----5-5-------------------------------------------------------------------|
-3-3----5-5-------------------------------------------------------------------|
-3-3----5-5-------------------------------------------------------------------|

------------------------------------------------------------------------------|
---------------------------------------------------4-------------4------------|
-5-5---5-7-5-7-9-7---5-7-5-7-9-7-----4-4---4-5-4-5---5---4-5-4-5---5----------|
-5-5---------------------------------4-4--------------------------------------|
-3-3---------------------------------2-2--------------------------------------|
------------------------------------------------------------------------------|

------------------------------------------------------------------------------|
------------------------------------------------------------------------------|
-5-5--------------------------------------------------------------------------|
-5-5--------------------------------------------------------------------------|
-3-3--------------------------------------------------------------------------|
------------------------------------------------------------------------------|
Tap to rate this tab
# A B C D E F G H I J K L M N O P Q R S T U V W X Y Z