Song name
# A B C D E F G H I J K L M N O P Q R S T U V W X Y Z

Papa Roach - What Do You Do tab

What Do You Do?

All right, cool.  This is the first song I've really tabbed myself, with the exception
the intro, which is a slight variation of Dan Fallows's (Sick_of_You) intro posted on
site (thank you Dan).  I'm pretty sure it's 100% accurate, if not I will eat my shorts.
helps to read the tab easier if you copy/paste it to Microsoft Word and set the side
to 0.7"- that way it fits all on one page, without having to fit two lines per string.
the way it's in drop D tuning (EBGDAD) if you didn't notice. Enjoy!

Update1: thank you to brazilian rocker for corrections to the tab-
I have been working out some minor kinks in the tab, and his
suggestion in the comments section helped.  The 4the fret notes in
the verse/ pre chorus sound a little better, but I am kind of
on the fence right now between 4s or 5s.  Anyway thank you

update 1/20/07- fixed piece in verse corrected by metalman75 in the
comments section, thanks for the help!

update 3/28/07- noticed the riff in middle of chorus was backwards, fixed it
made verse notes single notes, not double, fixed 4 to 5 in verse, 
made it a little easier to play in verse

update 4/26/07- noticed mistake in bridge with the 0 7 7 5 part, should
be 0 5 7 7, it's in the tab now

Intro
E|-----------------|
B|-----------------|
G|-7766776677699996|
D|-----------------| x4
A|-----------------|
D|-----------------|

Verse
E|-------5--------------5--------------5--------------5---------|
G|---------5~--3~---------5~--3~---------5~--3~---------5~--3~--|
B|--------------------------------------------------------------|
D|-----0~-------------0~-------------5~-------------5~----------| x2
A|---0~-------------0~-------------5~-------------5~------------|
D|-0~-------------0~-------------5~-------------5~--------------|

Pre Chorus
E|-------5--------------4---|
G|---------5~--3----------5-|
B|-----2--------------------|
D|---2----------------5-----|
A|-0----------------5-------|
D|----------------5---------|
PM		           .

Chorus (notes in fill are not one two one zero, they’re twelve ten)
E|-----------------------------------------------------------------------|
B|-----------------------------------------------------------------------|
G|----7~--7~--7~--------------9-7----------------------------------------|
D|0~--7~--7~--7~--7~--7~--7~------7-6--9~--9~--7~--7~--5~--5~--5~--5~----|
A|0~--5~--5~--5~--7~--7~--7~-----------9~--9~--7~--7~--5~--5~--5~--5~----|
D|0~--0~--0~--0~--7~--7~--7~-----------9~--9~--7~--7~--5~--5~--5~--5~--\-|

Repeat Verse, Pre Chorus, and Chorus

Bridge (play twice, again it’s eight tens and ten twelves not ones, twos, and zeros)
E|--------------------------------------------------------------------------------|
B|--------------------------------------------------------------------------------|
G|----------------------------------------777777777777777777777777------------1012|
D|8-8-8-8-8-8-8-8-10-10-10-10-10-10-10-10-777777777777777777777777--------1012----|
A|8-8-8-8-8-8-8-8-10-10-10-10-10-10-10-10-555555555555555555555555----1012--------|
D|8-8-8-8-8-8-8-8-10-10-10-10-10-10-10-10-------------------------1012------------|

Repeat Chorus

Outtro (end on the twelves)
E|------------------------------------------------------------------------|----|
B|------------------------------------------------------------------------|----|
G|------------------------------------------------------------------------|----|
D|0-0-0-0-0-0-0-0-7-7-7-7-7-7-7-7-8-8-8-8-8-8-8-8-10-10-10-10-10-10-10-10-|12~-|
A|0-0-0-0-0-0-0-0-7-7-7-7-7-7-7-7-8-8-8-8-8-8-8-8-10-10-10-10-10-10-10-10-|12~-|
D|0-0-0-0-0-0-0-0-7-7-7-7-7-7-7-7-8-8-8-8-8-8-8-8-10-10-10-10-10-10-10-10-|12~-|
Tap to rate this tab
 
# A B C D E F G H I J K L M N O P Q R S T U V W X Y Z