Song name
# A B C D E F G H I J K L M N O P Q R S T U V W X Y Z

Papa Roach - Cocaine tab

DROP D



D|444-44-4-4-4-4-4-444|
A|--------------------|
D|--------------------|
G|--------------------|
B|--------------------|
E|--------------------|repeat as necessary


D|4-------------------|*P.M repeat as necessary
A|4-------------------|
D|4-------------------|
G|--------------------|
B|--------------------|
E|--------------------|

D|0-------------------|after P.M
A|0-------------------|
D|0-------------------|
G|0-------------------|
B|0-------------------|
E|0-------------------|

D|4-----------------| 
A|4-----------------|
D|4-----------------|
G|------------------|
B|------------------|
E|------------------| 4x, then...

D|--------------------|
A|-11/12b-------------|
D|--------------------|
G|-13/14b-------------|
B|--------------------|
E|--------------------|as long as it play!

D|4-----------------| 
A|4-----------------|
D|4-----------------|
G|------------------|
B|------------------|
E|------------------| a lot of times, then...

D|--------------------|
A|-11/12b-------------|
D|--------------------|
G|-13/14b-------------|
B|--------------------|
E|--------------------| as long as it play, then...

D|444-44-4/---------| 
A|444-44-4/---------|
D|444-44-4/---------|
G|------------------|
B|------------------|
E|------------------| end!





Tap to rate this tab
# A B C D E F G H I J K L M N O P Q R S T U V W X Y Z