Song name
# A B C D E F G H I J K L M N O P Q R S T U V W X Y Z

Papa Roach - Lifeline tab

-------------------------------------------------------------------------------
			     Lifeline - Papa Roach
-------------------------------------------------------------------------------
Tabbed by:Petey Gunnz
Great new single from p roach

Part 1 x4
e|---------------------------------------------------------------------------|
B|------------------------------------7p0-7p0-7p0-7p0------------------------|
G|----7p0-7p0-7p0-7p0-6p0-6p0-6p0-6p0-----------------6p0-6p0-6p0-6p0--------|
D|---------------------------------------------------------------------------|
A|---------------------------------------------------------------------------|
E|---------------------------------------------------------------------------|

Part 2 x1
e|---------------------------------------------------------------------------|
B|-------------------------------------9p0-9p0-9p0-9p0-----------------------|
G|-----7p0-7p0-7p0-7p0-6p0-6p0-6p0-6p0-----------------6p0-6p0-6p0-6p0-------|
D|---------------------------------------------------------------------------|
A|---------------------------------------------------------------------------|
E|---------------------------------------------------------------------------|

part 1 x1 

Tap to rate this tab
# A B C D E F G H I J K L M N O P Q R S T U V W X Y Z