Song name
# A B C D E F G H I J K L M N O P Q R S T U V W X Y Z

Papa Roach - Had Enough tab

Band: Papa Roach
Album: Metamorphosis
Song: Had Enough

This is my fist Tab.
A great song from their new album Metamorphosis.
Have Fun!

Tuning: Standart

Legend:

h hammer-on
p pull-off
~ let ring
x palm mute
/ slide up
\ slide down


Intro:

Riff A

e|------------------------------------------|
B|------------------------------------------|
G|------------------------------------------|
D|--------99-55555555-77777777-99999999-----|
A|--77777-----------------------------------|
E|------------------------------------------| 4x
    xxxxx xx xxxxxxxx xxxxxxxx xxxxxxxx

Riff B

e|---------------------------------------------------------|
B|--10h12-1212121212-12p10-101010-10h12-1212121212-12p10---|
G|---------------------------------------------------------|
D|---------------------------------------------------------|
A|---------------------------------------------------------|
E|---------------------------------------------------------|

e|-------------------------------------------------------------|
B|--101010-10h12-1212121212-12p10-101010-----------------------|
G|---------------------------------------1212121212121212-12~--|
D|-------------------------------------------------------------|
A|-------------------------------------------------------------|
E|-------------------------------------------------------------| 2x


Verse:

e|------------------------------------------|
B|------------------------------------------|
G|------------------------------------------|
D|--------99-55555555-77777777-99999999-----|
A|--77777-----------------------------------|
E|------------------------------------------| 4x
    xxxxx xx xxxxxxxx xxxxxxxx xxxxxxxx

Second Guitar after 2x:

e|--12~---------|
B|--12~---------|
G|--12~---------|
D|--------------|
A|--------------|
E|--------------|


Chorus:

e|-------------------7----------------------------------------------------------------------|
B|--------8------------8--------7----------7----------5----------5--------------------------|
G|----7-----7----7----------7-----7----7-----7----5-----5----5-----5--------4----------4----|
D|--5---5------5---5------4---4------4---4------5---5------5---5--------5-----5----5-----5--|
A|--------------------------------------------------------------------5---5------5---5------|
E|------------------------------------------------------------------------------------------|


Verse:

Riff A

e|------------------------------------------|
B|------------------------------------------|
G|------------------------------------------|
D|--------99-55555555-77777777-99999999-----|
A|--77777-----------------------------------|
E|------------------------------------------| 2x
    xxxxx xx xxxxxxxx xxxxxxxx xxxxxxxx

Riff B

e|--12------12------12---|
B|----12--12--12--12-----|
G|------12------12-------|
D|-----------------------|
A|-----------------------| during the verse
E|-----------------------|
    x x x x x x x x x


Pre Chorus:

Riff A

e|------------------------------------------|
B|------------------------------------------|
G|------------------------------------------|
D|--------99-55555555-77777777-99999999-----|
A|--77777-----------------------------------|
E|------------------------------------------| 2x
    xxxxx xx xxxxxxxx xxxxxxxx xxxxxxxx

Riff B

e|---------------------------------------------------------------------------------|
B|-----------------------------12-12121212121212-------1212------------------------|
G|--555555/7-99999999-77777777-------------------99999-----1212121212121212--------|
D|--555555/7-99999999-77777777-----------------------------------------------------|
A|--333555/5-77777777-55555555-----------------------------------------------------|
E|---------------------------------------------------------------------------------|

-------------------------------------|
1010101010101010-1212121212121212----|
-------------------------------------|
-------------------------------------|
-------------------------------------|
-------------------------------------|

Chorus:

e|-------------------------------|
B|-------------------------------|
G|--12-----11-----5--------------|
D|--12-16x-12-16x-5-16x-5--------|
A|--10-----9------3-----5-16x----| 2x
E|----------------------3--------|


Interlude:

e|------------------------------------------|
B|------------------------------------------|
G|------------------------------------------|
D|--------99-55555555-77777777-99999999-----|
A|--77777-----------------------------------|
E|------------------------------------------| 2x
    xxxxx xx xxxxxxxx xxxxxxxx xxxxxxxx

e|------------------------------------------|
B|------------------------------------------|
G|------------------------------------------|
D|--------99-55555555-77777777-55555555-----|
A|--77777-----------------------------------|
E|------------------------------------------|
    xxxxx xx xxxxxxxx xxxxxxxx xxxxxxxx

e|-----------------------------------------------------------------|
B|-----------------------------------------------------------------|
G|--12/14/16/1717171717---1212121212121212-------------------------|
D|------------------------1212121212121212---1212121212121212------|
A|--10/12/14/1515151515---10101010110101010--1212121212121212------|
E|------------------------------------------1010101010101010-------|

e|------------------------------------------|
B|------------------------------------------|
G|--16/17/19/21212121-----------------------|
D|---------------------22222222-55555555----|
A|--14/15/17/19191919--22222222-55555555----|
E|---------------------00000000-33333333----|


Chorus:

e|-------------------------------|
B|-------------------------------|
G|--12-----11-----5--------------|
D|--12-16x-12-16x-5-16x-5--------|
A|--10-----9------3-----5-16x----| 2x
E|----------------------3--------|


Outro:

e|---------------|
B|---------------|
G|---------------|
D|--5~-----------|
A|--5~-----------|
E|--3~-----------|
Tap to rate this tab
# A B C D E F G H I J K L M N O P Q R S T U V W X Y Z