Guitaretab - guitar tabs
Song name
# A B C D E F G H I J K L M N O P Q R S T U V W X Y Z

Papa Roach - Live This Down tab

Papa Roach-Live This Down
Metamorphis (2009)
Guitar Tab
Tabbed By Ryan Ryngaert
Drop D Tuning (D, A, D, G, B, E)
Please Rate Or Comment

Intro
E---------x-x-x---------x-x-x---------x-x-x------------------|x4
B---------x-x-x---------x-x-x---------x-x-x------------------|
G---------x-x-x---------x-x-x-5-5-5-5-x-x-x------------------|
D-2-2-0-2-x-x-x-2-2-0-2-x-x-x-5-5-5-5-x-x-x-5-5-5-5-0-0-0-0--|
A-2-2-0-2-x-x-x-2-2-0-2-x-x-x-3-3-3-3-x-x-x-5-5-5-5-0-0-0-0--|
D-2-2-0-2-x-x-x-2-2-0-2-x-x-x---------x-x-x-5-5-5-5-0-0-0-0--|

Verse
E---------x-x-x---------x-x-x---------x-x-x------------------|x4
B---------x-x-x---------x-x-x---------x-x-x------------------|
G---------x-x-x---------x-x-x-5-5-5-5-x-x-x------------------|
D-2-2-0-2-x-x-x-2-2-0-2-x-x-x-5-5-5-5-x-x-x-5-5-5-5-0-0-0-0--|
A-2-2-0-2-x-x-x-2-2-0-2-x-x-x-3-3-3-3-x-x-x-5-5-5-5-0-0-0-0--|
D-2-2-0-2-x-x-x-2-2-0-2-x-x-x---------x-x-x-5-5-5-5-0-0-0-0--|

Pre-Chorus
E-0--------------------|
B-0--------------------|
G-9--------------------|
D-9------hold chord----|
A-7--------------------|
D----------------------|

Chorus (play 4 times)
E---x--x-x---x--x-x---x--x-x---x-x---x-x-|
B---x--x-x---x--x-x---x--x-x---x-x---x-x-|
G---x--x-x---x--x-x-5-x--x-x---x-x---x-x-|
D-2-x--x-x-2-x--x-x-5-x--x-x-5-x-x-0-x-x-|
A-2-x--x-x-2-x--x-x-3-x--x-x-5-x-x-0-x-x-|
D-2-x--x-x-2-x--x-x---x--x-x-5-x-x-0-x-x-|

Post-Chorus
E---------x-x-x---------x-x-x---------x-x-x------------------|x2
B---------x-x-x---------x-x-x---------x-x-x------------------|
G---------x-x-x---------x-x-x-5-5-5-5-x-x-x------------------|
D-2-2-0-2-x-x-x-2-2-0-2-x-x-x-5-5-5-5-x-x-x-5-5-5-5-0-0-0-0--|
A-2-2-0-2-x-x-x-2-2-0-2-x-x-x-3-3-3-3-x-x-x-5-5-5-5-0-0-0-0--|
D-2-2-0-2-x-x-x-2-2-0-2-x-x-x---------x-x-x-5-5-5-5-0-0-0-0--|
[ Tab from: http://www.guitaretab.com/p/papa-roach/181496.html ]
Verse
No guitar till 3rd and 4th time through
E---------x-x-x---------x-x-x---------x-x-x------------------|x2
B---------x-x-x---------x-x-x---------x-x-x------------------|
G---------x-x-x---------x-x-x-5-5-5-5-x-x-x------------------|
D-2-2-0-2-x-x-x-2-2-0-2-x-x-x-5-5-5-5-x-x-x-5-5-5-5-0-0-0-0--|
A-2-2-0-2-x-x-x-2-2-0-2-x-x-x-3-3-3-3-x-x-x-5-5-5-5-0-0-0-0--|
D-2-2-0-2-x-x-x-2-2-0-2-x-x-x---------x-x-x-5-5-5-5-0-0-0-0--|

Chorus (play 4 times)
E---x--x-x---x--x-x---x--x-x---x-x---x-x-|
B---x--x-x---x--x-x---x--x-x---x-x---x-x-|
G---x--x-x---x--x-x-5-x--x-x---x-x---x-x-|
D-2-x--x-x-2-x--x-x-5-x--x-x-5-x-x-0-x-x-|
A-2-x--x-x-2-x--x-x-3-x--x-x-5-x-x-0-x-x-|
D-2-x--x-x-2-x--x-x---x--x-x-5-x-x-0-x-x-|

Bridge
E---------x------------|x4
B---------x------------|
G---------x------------|
D-2-2-0-2-x-2-2-0-2----|
A-2-2-0-2-x-2-2-0-2----|
D-2-2-0-2-x-2-2-0-2-3--|b

(Play four times)
E---------x-x-x---------x-x-x---------x-x-x---------x-x-x-|
B---------x-x-x---------x-x-x---------x-x-x---------x-x-x-|
G---------x-x-x---------x-x-x---------x-x-x---------x-x-x-|
D-2-2-0-2-x-x-x-2-2-0-2-x-x-x-2-2-0-2-x-x-x-2-2-0-2-x-x-x-|
A-2-2-0-2-x-x-x-2-2-0-2-x-x-x-2-2-0-2-x-x-x-2-2-0-2-x-x-x-|
D-2-2-0-2-x-x-x-2-2-0-2-x-x-x-2-2-0-2-x-x-x-2-2-0-2-x-x-x-|

Chorus (play 4 times)
E---x--x-x---x--x-x---x--x-x---x-x---x-x-|
B---x--x-x---x--x-x---x--x-x---x-x---x-x-|
G---x--x-x---x--x-x-5-x--x-x---x-x---x-x-|
D-2-x--x-x-2-x--x-x-5-x--x-x-5-x-x-0-x-x-|
A-2-x--x-x-2-x--x-x-3-x--x-x-5-x-x-0-x-x-|
D-2-x--x-x-2-x--x-x---x--x-x-5-x-x-0-x-x-|

Ending
E---------x------------|x4
B---------x------------|
G---------x------------|
D-2-2-0-2-x-2-2-0-2----|
A-2-2-0-2-x-2-2-0-2----|
D-2-2-0-2-x-2-2-0-2-3--|b

Not a hard song at all but, a fun song to play
Please Rate or comment please. Thanks
Related for Live This Down tab
Advertisement will be closed in 10 seconds