Song name
# A B C D E F G H I J K L M N O P Q R S T U V W X Y Z

Papa Roach - Change Or Die tab

Artist: Papa Roach
Song: Change or Die
Album: Metamorphosis
Tuning: Drop D (D A D G B e)
Tabbed by: guitartiger

please RATE

Intro/Main Riff:

Guitar 2 (Lead):

e|---------------------------|---------------------------|
B|---------------------------|---------------------------|
G|---------------------------|-----------------------2---|
D|--4-4-4-2-4-4-4-2-4-4-4-4-4|------4-4-4-2-4-4-4-2-4-4-2|
A|---------------------------|-0-0-0---------------------|
D|---------------------------|---------------------------|

e|---------------------------|---------------------------|
B|---------------------------|---------------------------|
G|---------------------------|---------------------------|
D|--4-----4-4-4-2-4-4-4-2-4-4|-4-4-4-----4-4-4-2-4-4-4-2-|
A|---2-2-2-------------------|------0-0-0----------------|
D|---------------------------|---------------------------|

e|---------------------------|
B|---------------------------|
G|---2-----------------------|
D|--4-4-2-4------------------|
A|---------------------------|
D|---------------------------|

Guitar 1 (Rhythm):

e|---------------------------|---------------------------|
B|---------------------------|---------------------------|
G|---------------------------|---------------------------|
D|--4-4-4-2-4-4-4-2-4-4-4-4-4|-2-2-2-4-4-4-2-4-4-4-2-4-4-|
A|--4-4-4-2-4-4-4-2-4-4-4-4-4|-0-0-0-4-4-4-2-4-4-4-2-4-4-|
D|--4-4-4-2-4-4-4-2-4-4-4-4-4|-------4-4-4-2-4-4-4-2-4-4-|

e|---------------------------|
B|---------------------------|
G|--------4-4-4--------------|
D|--4-4-4-4-4-4--------------|
A|--4-4-4-2-2-2--------------|
D|--4-4-4--------------------|X2

Verse:

e|---------------------------|
B|---------------------------|
G|---------------------------|
D|--4-4--2-4-4---------------|
A|--4-4--2-4-4---------------|
D|--4-4--2-4-4---------------|X4 slide/

Main Riff:

e|---------------------------|---------------------------|
B|---------------------------|---------------------------|
G|---------------------------|-----------------------2---|
D|--4-4-4-2-4-4-4-2-4-4-4-4-4|------4-4-4-2-4-4-4-2-4-4-2|
A|---------------------------|-0-0-0---------------------|
D|---------------------------|---------------------------|

e|---------------------------|---------------------------|
B|---------------------------|---------------------------|
G|---------------------------|---------------------------|
D|--4-----4-4-4-2-4-4-4-2-4-4|-4-4-4-----4-4-4-2-4-4-4-2-|
A|---2-2-2-------------------|------0-0-0----------------|
D|---------------------------|---------------------------|

e|---------------------------|
B|---------------------------|
G|---2-----2-----------------|
D|--4-4-2-4-4----------------|
A|---------------------------|
D|---------------------------|

Chorus:

e|---------------------------|---------------------------|
B|---------------------------|---------------------------|
G|--7--2---4----4----4----4--|-7--2----------------------|
D|--7--2---4--2-4--2-4--2-4--|-7--2---4----2-4----2-4-2-4|
A|--5--0---2--0-2--0-2--0-2--|-5--0---4----2-4----2-4-0-4|
D|---X8-X8--X3---X3---X3---X3|--X8-X8-4-X3-2-4-X3-2-4---4|

e|---------------------------|
B|---------------------------|
G|---------------------------|
D|--2-4----------------------|
A|--2-4----------------------|
D|--2-4-X3-------------------|X2

Verse:

Guitar 1:
e|---------------------------|
B|---------------------------|
G|---------------------------|
D|--4-4--2-4-4---------------|
A|--4-4--2-4-4---------------|
D|--4-4--2-4-4---------------|X4 

Guitar 2:
e|---------------------------|
B|-----------.---------------|
G|-9h11-9h11-11--------------|
D|-------------X8------------|
A|---------------------------|
E|---------------------------|X4

Main Riff:
e|---------------------------|---------------------------|
B|---------------------------|---------------------------|
G|---------------------------|-----------------------2---|
D|--4-4-4-2-4-4-4-2-4-4-4-4-4|------4-4-4-2-4-4-4-2-4-4-2|
A|---------------------------|-0-0-0---------------------|
D|---------------------------|---------------------------|

e|---------------------------|---------------------------|
B|---------------------------|---------------------------|
G|---------------------------|---------------------------|
D|--4-----4-4-4-2-4-4-4-2-4-4|-4-4-4-----4-4-4-2-4-4-4---|
A|---2-2-2-------------------|------0-0-0----------------|
D|---------------------------|---------------------------|slide/


Chorus:

e|---------------------------|---------------------------|
B|---------------------------|---------------------------|
G|--7--2---4----4----4----4--|-7--2----------------------|
D|--7--2---4--2-4--2-4--2-4--|-7--2---4----2-4----2-4-2-4|
A|--5--0---2--0-2--0-2--0-2--|-5--0---4----2-4----2-4-0-4|
D|---X8-X8--X3---X3---X3---X3|--X8-X8-4-X3-2-4-X3-2-4---4|

e|---------------------------|
B|---------------------------|
G|---------------------------|
D|--2-4----------------------|
A|--2-4----------------------|
D|--2-4-X3-------------------|X2

Bridge:

Guitar 1:
e|---------------------------|
B|---------------------------|
G|---------------------------|
D|--4-4--2-4-4---------------|
A|--4-4--2-4-4---------------|
D|--4-4--2-4-4---------------|X4

Guitar 2:
e|--2------------5--9--------|
B|--5b-bass line-8b-12b-X4---|
G|---------------------------|
D|---------------------------|
A|---------------------------|
D|---------------------------|

Breakdown:
e|---------------------------|
B|---------------------------|
G|---------------------------|
D|--2-2-2-4------------------|
A|--2-2-2-4------------------|
D|--2-2-2-4------------------|X4

Solo:

Guitar 1:

e|---------------------------|---------------------------|
B|---------------------------|---------------------------|
G|---------------------------|---------------------------|
D|--4-4-4-2-4-4-4-2-4-4-4-4-4|-2-2-2-4-4-4-2-4-4-4-2-4-4-|
A|--4-4-4-2-4-4-4-2-4-4-4-4-4|-0-0-0-4-4-4-2-4-4-4-2-4-4-|
D|--4-4-4-2-4-4-4-2-4-4-4-4-4|-------4-4-4-2-4-4-4-2-4-4-|

e|---------------------------|
B|---------------------------|
G|--------4-4-4--------------|
D|--4-4-4-4-4-4--------------|
A|--4-4-4-2-2-2--------------|
D|--4-4-4--------------------|X2

Guitar 2:

e|--2--2--4--4---------------|9------------12-5--5--7----|
B|--5b-5b-7b-7b--9-10-9-7-7-9|-9-10-9-7-7-9---8b-8b-10b--|
G|-----------------------9---|---------9-----------------|
D|---------------------------|---------------------------|
A|---------------------------|---------------------------|
D|---------------------------|---------------------------|

e|--7---9--------------------|
B|--10b-12b-X6---------------|
G|---------------------------|
D|---------------------------|
A|---------------------------|
D|---------------------------|

Chorus:

e|---------------------------|---------------------------|
B|---------------------------|---------------------------|
G|--7--2---4----4----4----4--|-7--2----------------------|
D|--7--2---4--2-4--2-4--2-4--|-7--2---4----2-4----2-4-2-4|
A|--5--0---2--0-2--0-2--0-2--|-5--0---4----2-4----2-4-0-4|
D|---X8-X8--X3---X3---X3---X3|--X8-X8-4-X3-2-4-X3-2-4---4|

e|---------------------------|
B|---------------------------|
G|---------------------------|
D|--2-4----------------------|
A|--2-4----------------------|
D|--2-4-X3-------------------|X2

Outro:
e|---------------------------|---------------------------
B|---------------------------|---------------------------
G|---------------------------|-------------5-------------
D|----------------------2----|-------------8b------------
A|--4-4-2-4-4-2-4-4-2-4-0-4-2|-4-4-2-4-4-2---------------
D|--4-4-2-4-4-2-4-4-2-4---4-2|-4-4-2-4-4-2---------------

e|---------------------------|---------------------------
B|---------------------------|---------------------------
G|---------------------------|---------------------------
D|----------------------2----|---------------------------
A|--4-4-2-4-4-2-4-4-2-4-0-4-2|-4-4-2-4-4-2-4-4-----------
D|--4-4-2-4-4-2-4-4-2-4---4-2|-4-4-2-4-4-2-4-4-----------


End!!

/  - slide up and down to
b  - Bend
() - Natural harmonics
*  - Pinch harmonics
h  - Hammer
p  - Pull off
"  - Tremolo Picking
x  - Mute

Rate, Comment, Enjoy
Tap to rate this tab
# A B C D E F G H I J K L M N O P Q R S T U V W X Y Z