Song name
# A B C D E F G H I J K L M N O P Q R S T U V W X Y Z

Papa Roach - Days Of War tab

Artist: Papa Roach
Song: Days of War
Album: Metamorphosis
Tuning: Drop D (D A D G B e)
Tabbed by: guitartiger

Please RATE

Intro:

(Opens with feedback in the key of f#)

e|---------------------------|
B|---------------------------|
G|---------------------------|
D|--4---2--------------------|
A|--4---2--------------------|
D|--4---2--------------------|X2 

e|---------------------------|---------------------------|
B|---------------------------|---------------------------|
G|---------------------------|---------------------------|
D|--4----4----4----4----4----|-4----4----4---------------|
A|--4----4----4----4----4----|-4----4----4---------------|
D|--4-X3-4-X5-4-X5-4-X5-4-X5-|-4-X5-4-X5-4-X8------------|

Guitar 1 (Rhythm):

e|---------------------------|---------------------------|
B|---------------------------|---------------------------|
G|---------------------------|---------------------------|
D|--4----4----4----4----4----|-4----4----4----4----4-----|
A|--4----4----4----4----4----|-4----4----4----4----4-----|
D|--4-X3-4-X5-4-X5-4-X5-4-X5-|-4-X5-4-X5-4-X5-4-X5-4-X5--|

e|---------------------------|---------------------------|
B|---------------------------|---------------------------|
G|---------------------------|---------------------------|
D|--4-----0----0----0----0---|-0----0----0----0----------|
A|--4-----0----0----0----0---|-0----0----0----0----------|
D|--4-X5--0-X3-0-X5-0-X5-0-X5|-0-X5-0-X5-0-X5-0-X5-------|

e|---------------------------|---------------------------|
B|---------------------------|---------------------------|
G|---------------------------|---------------------------|
D|--4----4----4----4----4----|-4----4----4---------------|
A|--4----4----4----4----4----|-4----4----4---------------|
D|--4-X3-4-X5-4-X5-4-X5-4-X5-|-4-X5-4-X5-4-X5------------|


e|---------------------------|---------------------------|
B|---------------------------|---------------------------|
G|---------------------------|---------------------------|
D|--------0----0----0----0---|-0----0----0----0----------|
A|--------0----0----0----0---|-0----0----0----0----------|
D|--------0-X3-0-X5-0-X5-0-X5|-0-X5-0-X5-0-X5-0-X5-------|

e|---------------------------|---------------------------|
B|---------------------------|---------------------------|
G|---------------------------|---------------------------|
D|--4----4----4----4----4----|-4----4----4---------------|
A|--4----4----4----4----4----|-4----4----4---------------|
D|--4-X3-4-X5-4-X5-4-X5-4-X5-|-4-X5-4-X5-4-X8------------|

Guitar 2 (Lead):

e|---------------------------|---------------------------|
B|---------------------------|---------------------------|
G|--11---14----13----16------|-14----18----16----19------|
D|---------------------------|---------------------------|
A|--9-X6-12-X6-11-X6-14-X6---|-12-X6-16-X6-14-X6-17-X6---|
D|---------------------------|---------------------------|

e|---------------------------|---------------------------|
B|---------------------------|---------------------------|
G|--18-----7----9----11------|-13----14----16----18------|
D|---------------------------|---------------------------|
A|--16-X24-5-X6-7-X6-9-X6----|-11-X6-12-X6-14-X6-16-X6---|
D|---------------------------|---------------------------|

e|---------------------------|---------------------------|
B|---------------------------|---------------------------|
G|--19----18-----16----14----|-13----14----13----11------|
D|---------------------------|---------------------------|
A|--17-X6-16-X54-14-X6-12-X6-|-11-X6-12-X6-11-X6-9-X6----|
D|---------------------------|---------------------------|

e|---------------------------|---------------------------|
B|---------------------------|---------------------------|
G|--9----6----6----6----6----|-6----6----6----6----------|
D|---------------------------|---------------------------|
A|--7-X6-4-X3-4-X5-4-X5-4-X5-|-4-X5-4-X5-4-X5-4-X8-------|
D|---------------------------|---------------------------|

End!!

Rate, Comment, Enjoy

Tap to rate this tab
 
# A B C D E F G H I J K L M N O P Q R S T U V W X Y Z