Song name
# A B C D E F G H I J K L M N O P Q R S T U V W X Y Z

Papa Roach - I Almost Told You That I Loved You tab

Artist: Papa Roach
Song: I Almost Told You That I Loved You
Album: Metamorphosis
Tuning: Drop D (D A D G B e)
Tabbed by: guitartiger


PLEASE RATE


Intro/Main Riff:

Guitar 1 (Rhythm)
e|---------------------------|
B|---------------------------|
G|---------------------------|
D|--2----0-------------------|
A|--2----0-------------------|
D|--2----0-------------------|X4 (4th time don't play the d)

Guitar 2 (Lead)
e|---------------------------|
B|---------------------------|
G|---------------------------|
D|--7-5-5---7h9h7-5-5h7h5-5--|
A|-----7--7------------------|
D|---------------------------|X8


Verse:

e|---------------------------|---------------------------|
B|---------------------------|---------------------------|
G|----9\---9\---9\---10\--7\-|---7\---7\---10\-----------|
D|---------------------------|---------------------------|
A|--2-7\-2-7\-2-7\-2-8\-0-5\-|-0-5\-0-5\-0-8\------------|
D|--2----2----2----2----0----|-0----0----0---------------|

e|---------------------------|---------------------------|
B|---------------------------|---------------------------|
G|----9\---9\---9\---10\--7\-|---7\---7\---/10--10-------|
D|---------------------------|---------------------------|
A|--2-7\-2-7\-2-7\-2-8\-0-5\-|-0-5\-0-5\-0-/8---8--------|
D|--2----2----2----2----0----|-0----0----0---------------|

Chorus:

e|---------------------------|---------------------------|
B|---------------------------|---------------------------|
G|---------------------------|---------------------------|
D|---------------5-5-5--5-5-5|---------------------------|
A|--2-2-2--2-2-2-3-3-3--3-3-3|5-5-5--5-5-5--1-1-1--1-1-1-|
D|--2-2-2--2-2-2-------------|5-5-5--5-5-5--1-1-1--1-1-1-|


e|---------------------------|---------------------------|
B|---------------------------|---------------------------|
G|---------------------------|---------------------------|
D|---------------5-5-5--5-5-5|---------------------------|
A|--2-2-2--2-2-2-3-3-3--3-3-3|5-5-5--5-5-5---------------|
D|--2-2-2--2-2-2-------------|5-5-5--5-5-5--0--1---------|X2

Verse:

e|---------------------------|
B|---------------------------|
G|---------------------------|
D|---------------------------|
A|--2------------------------|
D|--2------------------------|Just Bass...

e|---------------------------|---------------------------|
B|---------------------------|---------------------------|
G|----9\---9\---9\---10\--7\-|---7\---7\---/10--10-------|
D|---------------------------|---------------------------|
A|--2-7\-2-7\-2-7\-2-8\-0-5\-|-0-5\-0-5\-0-/8---8--------|
D|--2----2----2----2----0----|-0----0----0---------------|


Chorus:

e|---------------------------|---------------------------|
B|---------------------------|---------------------------|
G|---------------------------|---------------------------|
D|---------------5-5-5--5-5-5|---------------------------|
A|--2-2-2--2-2-2-3-3-3--3-3-3|5-5-5--5-5-5--1-1-1--1-1-1-|
D|--2-2-2--2-2-2-------------|5-5-5--5-5-5--1-1-1--1-1-1-|


e|---------------------------|---------------------------|
B|---------------------------|---------------------------|
G|---------------------------|---------------------------|
D|---------------5-5-5--5-5-5|---------------------------|
A|--2-2-2--2-2-2-3-3-3--3-3-3|5-5-5--5-5-5---------------|
D|--2-2-2--2-2-2-------------|5-5-5--5-5-5--0--1---------|X2

Verse:

e|---------------------------|---------------------------|
B|---------------------------|---------------------------|
G|-------------------10\-----|-----------------10\-------|
D|--2-2-2-2------------------|-0-0-0-0-------------------|
A|--2-2-2-2----2-2-2-8\------|-0-0-0-0----0-0--8\--------|
D|--2-2-2-2-X3-2-2-2---------|-0-0-0-0-X3-0-0------------|

e|---------------------------|---------------------------|
B|---------------------------|---------------------------|
G|-------------------10\-----|-----------------/10--10---|
D|--2-2-2-2------------------|-0-0-0-0-----.-------------|
A|--2-2-2-2----2-2-2-8\------|-0-0-0-0-----0---/8---8----|
D|--2-2-2-2-X3-2-2-2---------|-0-0-0-0-X2--0-X8----------|

Main Riff:

Guitar 1 (Rhythm)
e|---------------------------|
B|---------------------------|
G|---------------------------|
D|--2----0-------------------|
A|--2----0-------------------|
D|--2----0-------------------|X4 (4th time don't play the d)

Guitar 2 (Lead)
e|---------------------------|
B|---------------------------|
G|---------------------------|
D|--7-5-5---7h9h7-5-5h7h5-5--|
A|-----7--7------------------|
D|---------------------------|X8

Chorus:

e|---------------------------|---------------------------|
B|---------------------------|---------------------------|
G|---------------------------|---------------------------|
D|---------------5-5-5--5-5-5|---------------------------|
A|--2-2-2--2-2-2-3-3-3--3-3-3|5-5-5--5-5-5--1-1-1--1-1-1-|
D|--2-2-2--2-2-2-------------|5-5-5--5-5-5--1-1-1--1-1-1-|


e|---------------------------|---------------------------|
B|---------------------------|---------------------------|
G|---------------------------|---------------------------|
D|---------------5-5-5--5-5-5|---------------------------|
A|--2-2-2--2-2-2-3-3-3--3-3-3|5-5-5--5-5-5---------------|
D|--2-2-2--2-2-2-------------|5-5-5--5-5-5--0--1---------|X4


Guitar 2 (Last Two Times):

e|--7-7-8-8-7-7-6-6-7-7-8-8--|7-7-5--6-------------------|
B|---8-8-8-8-8-8-8-8-8-8-8-8-|-8-8-----------------------|
G|---------------------------|---------------------------|
D|---------------------------|---------------------------|
A|---------------------------|---------------------------|
D|---------------------------|---------------------------|

e|--7-7-8-8-7-7-6-6-7-7-8-8--|7-7------------------------|
B|---8-8-8-8-8-8-8-8-8-8-8-8-|-8-8-----------------------|
G|---------------------------|---------------------------|
D|---------------------------|---------------------------|
A|---------------------------|-----------2\--------------|
D|---------------------------|-----0--1--2\--------------|


End

Rate, Comment, Enjoy
Tap to rate this tab
 
# A B C D E F G H I J K L M N O P Q R S T U V W X Y Z