Song name
# A B C D E F G H I J K L M N O P Q R S T U V W X Y Z

Papa Roach - I Almost Told You That I Loved You tab

Guitar 1
e|-------------------------|
B|----2p0----0----0--2h3p2-|
G|--------2-----2----------|5   x6
D|-------------------------|
A|-------------------------|
E|-------------------------|


Guitar 2
e|---------------------|
B|---------------------|
G|---------------------|    x2
D|----2--0-2--0--2-----|
A|----2--0-2--0--2-----|
E|----2--0-2--0--2-----|
Tap to rate this tab
# A B C D E F G H I J K L M N O P Q R S T U V W X Y Z