Song name
# A B C D E F G H I J K L M N O P Q R S T U V W X Y Z

Papa Roach - Into The Ligh tab

                         BY: Guitar ownage $

                      ok I finally got the the intro to Into the light
                   it might not be perfect but it is a good start.

e---------------------------------------------------------|
b---------------------------------------------------------|
g-7-7-7-7-7-7---------------------------------------------|
d-7-7-7-7-7-7-7-7-7-7-7-7-8-8-8-8-8-8-5-5-5-5-5-5---------|
a-5-5-5-5-5-5-7-7-7-7-7-7-8-8-8-8-8-8-5-5-5-5-5-5---------|
D-0-0-0-0-0-0-7-7-7-7-7-7-8-8-8-8-8-8-5-5-5-5-5-5 repeat--| 4x

e-----------------------------------------------------------|
b-----------------------------------------------------------|
g-----------------------------------------------------------|
d-0~---------------3~---------------/-----------------------|
a-0~---------------3~---------------/-----------------------|
D-0~---------------1~---------------/-----------------------|

e-----------------------------------------------------------|
b-----------------------------------------------------------|
g-7-7-7-7------7-7-7-7------7-7-7-7--------7-7-7-7----------|
d-7-7-7-7------7-7-7-7------7-7-7-7--------7-7-7-7----------|
a-5-5-5-5------5-5-5-5------5-5-5-5--------5-5-5-5----------|
D-----------------------------------------------------------|

e-----------------------------------------------------------|
b-----------------------------------------------------------|
g-3-3-3-3-----3-3-3-3-------3-3-3-3--------3-3-3-3----------|
d-3-3-3-3-----3-3-3-3-------3-3-3-3--------3-3-3-3----------|
a-3-3-3-3-----3-3-3-3-------3-3-3-3--------3-3-3-3----------|
D-----------------------------------------------------------|

e------------------------|
b------------------------|
g-5-5-5-5--------7-7-7-7-|
d-5-5-5-5--------7-7-7-7-|
a-3-3-3-3--------5-5-5-5-|
D------------------------|

e--------------------------------------------------------|
b--------------------------------------------------------|
g--------------------------------------------------------|
d-0------3/5--------0-0-0-0------5-7-5-3-----------------|
a-0------3/5--------0-0-0-0------5-7-5-3-----------------|
D-0------3/5--------0-0-0-0------5-7-5-3-----------------|
                    x-x-x-x

                100% correct
Tap to rate this tab
 
# A B C D E F G H I J K L M N O P Q R S T U V W X Y Z