Song name
# A B C D E F G H I J K L M N O P Q R S T U V W X Y Z

Papa Roach - State Of Emergency tab

Kay so this is my first attempt. Be nice haha! Not completed yet, only the first half.
Tuning: Drop D
b=bend


Intro/Verse
E|-----------------------------------|------------------------------------|
B|-----------------------------------|------------------------------------|
G|--7--9---7--9-------7--9---7--9----|--7--9---12(b)--9----------7--9----7|
D|-------------(0)-------------------|---------------------------------9--|
A|-------------------------------(0)-|------------------------------------|
D|-----------------------------------|------------------------------------|    REPEAT x4

Chorus
E|2----5----7--------2----5----0----|2----5----7-----------0----1---------|
B|2----5----7--------2----5----0----|2----5----7-----------0----1---------|
G|2-x8-5-x4-7-x4-----2-x8-5-x4-0-x4-|2-x8-5-x4-7-x4--------0-x8-1-x8------|
D|2----5----7--------2----5----0----|2----5----7-----------0----1---------|
A|2----5----7--------2----5----0----|2----5----7-----------0----1---------|
D|2----5----7--------2----5----0----|2----5----7-----------0----1---------|    REPEAT x2


And thats all I have for now guys.
Tap to rate this tab
 
# A B C D E F G H I J K L M N O P Q R S T U V W X Y Z