Song name
# A B C D E F G H I J K L M N O P Q R S T U V W X Y Z

Papa Roach - Nights Of Love tab

Tab made by Daniel M.

Standart Tuning


Intro

e ---------------------------------------------------|
H -------8-8p10--8------8-------------8-8p10-8-------|
G --7-10-----------10-7---10-7---7-10----------10~---|
D ---------------------------------------------------|
A ---------------------------------------------------|
E ---------------------------------------------------|

Chorus

e -------------------------------------------------------------------|
H -------------------------------------------------------------------|
G --7-7-7-7-7-7-7-7-----------------3-3-3-3-3-3-3-3-3-3-3-3--5-5-5---|
D --7-7-7-7-7-7-7-7-5-5-5-5--3-3-3--3-3-3-3-3-3-3-3-3-3-3-3--5-5-5---|
A --5-5-5-5-5-5-5-5-5-5-5-5--3-3-3--1-1-1-1-1-1-1-1-1-1-1-1--3-3-3---|
E ------------------3-3-3-3--1-1-1-----------------------------------|

Bridge (guitar 1)

e ------------------------------------|
H -----------10---8---10--------8-----|
G --7-7-10-7----7---7----7-10-7---8---|
D ------------------------------------|
A ------------------------------------|
E ------------------------------------|

Bridge (Guitar 2)

Play the Chorus


This tab should be okay... hope you enjoy it ;)

Try to find out how often you have to play the parts and how to play the part in the end...
I'll upload the part in the end later...
Tap to rate this tab
 
# A B C D E F G H I J K L M N O P Q R S T U V W X Y Z