Song name
# A B C D E F G H I J K L M N O P Q R S T U V W X Y Z

Papa Roach - Last Resort drum

-----------------------------

INTRO
Ch|----------------|----------------|----------------|--------------x-|
S |----------------|----------------|----f-------f---|----f---------o-|
F |----------------|----------------|ff------ff------|ff------ff--ff--|
B |----------------|----------------|oo------oo------|oo------oo--oo--|
Hf|----------------|----------------|x-x-x-x-x-x-x-x-|x-x-x-x-x-x-x-x-|
   1 + 2 + 3 + 4 +  1 + 2 + 3 + 4 +  1 + 2 + 3 + 4 +  1 + 2 + 3 + 4 +

PREVERSE 1
C |x---------------|----------------|----------------|--------------x-|
H |--X-X-X-X-X-X-X-|X-X-X-X-X-X-X-C-|X-X-X-X-X-X-X-X-|X-X-X-X-X-X-X---|
S |----o-------o---|----o---------o-|----o-------o---|----o---------o-|
B |oo------oo------|oo------oo--oo--|oo------oo------|oo------oo--oo--|
   1 + 2 + 3 + 4 +  1 + 2 + 3 + 4 +  1 + 2 + 3 + 4 +  1 + 2 + 3 + 4 +

VERSE 1 
C |----------------|----------------|----------------|--------------x-|
H |x-x-x-x-x-x-x-x-|x-x-x-x-x-x-x-0-|x-x-x-x-x-x-x-x-|x-x-x-x-x-0-x---|
S |----o-------o---|----o---------o-|----o-------o---|----o-------d-o-|
B |oo------oo------|oo------oo--oo--|oo------oo------|oo------oo---o--|
   1 + 2 + 3 + 4 +  1 + 2 + 3 + 4 +  1 + 2 + 3 + 4 +  1 + 2 + 3 + 4 +
Ch|----------------|----------------|----------------|--------------x-|
H |x-x-x-x-x-x-x-x-|x-x-x-x-x-x-0-c-|x-x-x-x-x-x-x-x-|x-x-x-0-x-------|
S |----o-------o---|----o-------o---|----o-------o---|----o---o-----o-|
F |----------------|----------------|----------------|---------ooooo--|
B |oo------oo------|oo------oo---o--|oo------oo------|oo----o---------|
   1 + 2 + 3 + 4 +  1 + 2 + 3 + 4 +  1 + 2 + 3 + 4 +  1 + 2 + 3 + 4 +

CHORUS 1 
Ch|----------------|x---------------|----------------|x---------------|
C |x-------x-------|--------x-------|x-------x-------|--------x-------|
Rd|--x-x-x---x-x-x-|--x-x-x---x-x---|--x-x-x---x-x-x-|--x-x-x---x-----|
H |----------------|----------0-----|----------------|----------0-----|
t |----------------|----------------|----------------|-------------o--|
T |----------------|----------------|----------------|--------------o-|
S |o---o---o---o---|o---o---o---o-d-|o---o---o---o---|o---o---o---o---|
F |----------------|----------------|----------------|---------------o|
B |--o--o-o--o--o-o|--o--o-o--o--o-o|--o--o-o--o--o-o|--o--o-o--o-----|
   1 + 2 + 3 + 4 +  1 + 2 + 3 + 4 +  1 + 2 + 3 + 4 +  1 + 2 + 3 + 4 +

PREVERSE 2
Ch|----------------|--------------x-|
C |x---------------|----------------|
H |--X-X-X-X-X-X-X-|X-X-X-X-X-X-X---|
S |----o-------o---|----o---------o-|
B |oo------oo------|oo------oo--oo--|
   1 + 2 + 3 + 4 +  1 + 2 + 3 + 4 +

VERSE 2 
Ch|----------------|----------------|----------------|--------------x-|
C |x---------------|----------------|----------------|----------------|
H |--x-x-x-x-x-x-x-|x-x-x-x-x-x-x-0-|x-x-x-x-x-x-x-x-|x-x-x-x-x-0-----|
S |----o-------o---|----o---------o-|----o-------o---|----o---------o-|
F |----------------|----------------|----------------|------------do--|
B |oo------oo------|oo------oo--oo--|oo------oo------|oo------oo------|
   1 + 2 + 3 + 4 +  1 + 2 + 3 + 4 +  1 + 2 + 3 + 4 +  1 + 2 + 3 + 4 +
Ch|----------------|----------------|----------------|--------------x-|
C |x---------------|----------------|----------------|----------------|
H |--x-x-x-x-x-x-x-|x-x-x-x-x-x-0-c-|x-x-x-x-x-x-x-x-|x-x-x-0-x-------|
S |----o-------o---|----o-------o---|----o-------o---|----o---o-----o-|
F |----------------|----------------|----------------|---------ooooo--|
B |oo------oo------|oo------oo---o--|oo------oo------|oo----o---------|
   1 + 2 + 3 + 4 +  1 + 2 + 3 + 4 +  1 + 2 + 3 + 4 +  1 + 2 + 3 + 4 +

repeat CHORUS 1

C |x-------x-------|x-------x-------|x---x-----------|x-------x-------|
H |--X-X-X---X-X-X-|--X-X-X---X-----|--X---X-X-X-X-X-|--X-X-X---X-X-X-|
S |----o-------o---|----o-------o-dd|----o-------o--o|----o-------o---|
B |o-o-----o-o-----|o-o-----o-o-----|o-o-----o-o---o-|oo------o-o---o-|
   1 + 2 + 3 + 4 +  1 + 2 + 3 + 4 +  1 + 2 + 3 + 4 +  1 + 2 + 3 + 4 +
Ch|----x-----------|----------------|----x-----------|--------------x-|
C |x---------------|----------------|x---------------|------------x---|
H |--X---X-X-X-X-X-|X-X-X-X-X-X-X-X-|--X---X-X-X-X-X-|X-X-X-X-X-X-----|
S |o---o-------o---|----o-------o---|o---o-------o---|----o-------o-o-|
B |-o-o--o--o-o--o-|-o-o--o--o-o--o-|-o-o--o--o-o--o-|-o-o--o--o-o----|
   1 + 2 + 3 + 4 +  1 + 2 + 3 + 4 +  1 + 2 + 3 + 4 +  1 + 2 + 3 + 4 +
  |-----------------------------Play 2x-------------------------------|
Ch|----------------|----------------|----------------|--------------x-|
S |----f-------f---|----f-------o---|----f-------f---|----f---------o-|
F |ff------ff------|ff------ff--o---|ff------ff------|ff------ff--ff--|
B |oo------oo------|oo------oo---o--|oo------oo------|oo------oo--oo--|
Hf|x-x-x-x-x-x-x-x-|x-x-x-x-x-x-x-x-|x-x-x-x-x-x-x-x-|x-x-x-x-x-x-x-x-|
   1 + 2 + 3 + 4 +  1 + 2 + 3 + 4 +  1 + 2 + 3 + 4 +  1 + 2 + 3 + 4 +
Ch|----------------|----------------|----------------|--------x-----x-|
S |----f-------f---|----f-------o---|----f-------f---|----f---o-----o-|
F |ff------ff------|ff------ff--o---|ff------ff------|ff--o----ooooo--|
B |oo------oo------|oo------oo---o--|oo------oo------|oo----o---------|
Hf|x-x-x-x-x-x-x-x-|x-x-x-x-x-x-x-x-|x-x-x-x-x-x-x-x-|x-x-------------|
   1 + 2 + 3 + 4 +  1 + 2 + 3 + 4 +  1 + 2 + 3 + 4 +  1 + 2 + 3 + 4 +

repeat CHORUS 1

Ch|x---------------|------------x---|----------------|x---------------|
C |--------x-------|x-------x-------|x-------x-------|--------x-------|
Rd|--x-x-x---x-x-x-|--x-x-x---x-----|--x-x-x---x-x-x-|--x-x-x---x-----|
H |----------------|----------0-----|----------------|----------0-----|
S |o---o---o---o---|o---o---o---o-d-|o---o---o---o---|o---o---o---ooo-|
F |----------------|----------------|----------------|------------ooo-|
B |--o--o-o--o--o-o|--o--o-o--o--o-o|--o--o-o--o--o-o|--o--o-o--o----o|
   1 + 2 + 3 + 4 +  1 + 2 + 3 + 4 +  1 + 2 + 3 + 4 +  1 + 2 + 3 + 4 +
Ch|----------------|------------x---|----------------|----------------|
C |x-x-x-x-x-x-x-x-|x-x-x-x-x-x---0-|x-x-x-x-x-x-x-x-|x-x-x-x-x-x-x---|
t |----------------|----------------|----------------|-------------o--|
T |----------------|----------------|----------------|--------------o-|
S |o---o---o---o---|o---o---o---o---|o---o---o---o---|o---o---o---o---|
F |----------------|----------------|----------------|---------------o|
B |-o-o--o--o-o--o-|-o-o--o--o-o--o-|-o-o--o--o-o--o-|-o-o--o--o-o----|
   1 + 2 + 3 + 4 +  1 + 2 + 3 + 4 +  1 + 2 + 3 + 4 +  1 + 2 + 3 + 4 +
Ch|----------------|--------|x-x-------------|----------------|
C |x-------x-------|x-------|--------x---x---|x---x---x-------|
H |--X-X-X---X-X-X-|--------|----------X-----|------------X---|
t |----------------|--------|----------------|--------------o-|
S |----o-------o---|--oooooo|----dddd----o-dd|--dd--dd--dd-o--| 
F |----------------|--oooooo|----------------|---------------o|
B |o-o-----o-o-----|o-------|o-o-----o-o-----|o---o---o---o---|
   1 + 2 + 3 + 4 +  1 + 2 +  1 + 2 + 3 + 4 +  1 + 2 + 3 + 4 +
Ch|----------------|----------------|x---------------|----------------|
C |x-------x-------|x---x---x---x---|--------x-------|x---------------|
H |--X-X-X---X-X-X-|----------------|--X-X-X---X-X-X-|----------------|
t |----------------|--------------o-|----------------|--------oooo----|
S |----o-------o---|--oo--oo--oo-o--|----o-------o---|--oooooo--------|
F |----------------|---------------o|----------------|------------oooo|
B |o-o-----o-o-----|o---o---o---o---|o-o-----o-o-----|o---------------|
   1 + 2 + 3 + 4 +  1 + 2 + 3 + 4 +  1 + 2 + 3 + 4 +  1 + 2 + 3 + 4 +
C |x-------x-x-x---|
H |--X-X-X---------|
S |----o---o-o-o---|
B |o-o---o--o-o----|
   1 + 2 + 3 + 4 +
	
Tap to rate this tab
# A B C D E F G H I J K L M N O P Q R S T U V W X Y Z