Song name
# A B C D E F G H I J K L M N O P Q R S T U V W X Y Z

Papa Roach - Tightrope tab

Papa roach
tuning D
Tightrope
im tabbing this because the rythm on the other tabs are mainly right but the lead 
is not there or wrong
i give credit to both tab 1 for the intro and chorus.
Intro/Pre verse
E|-5---0---3---5-------------|
B|-5---0---3---5-------------|
G|-5---2---4---7-------------|
D|---------------------------| these 4 chords in the intro with delay and dist.
A|---------------------------|
D|---------------------------|
Actaul verse
E|--8------8-----10----10---------|
B|--10-----7-----12----12---------| very discrete, pick these very gently
G|--------------------------------|
D|--------------------------------|
A|--------------------------------|
D|--------------------------------|

Lead before chorus (with delay on still) (not all the way to pitch with 10th fret)
E|------------------------------|------------------|
B|------------------------------|------------------|
G|9b(10)------------------------|--4h5p4~~~--------|
D|------------------------------|------------------|
A|------------------------------|------------------|
D|------------------------------|------------------|

E|-----------------|-------------------|
B|-----------------|-------------------|
G|-----------------|-------------------|
D|-----------------|-10---9---10-9-----|
A|-----------------|-------------------|
D|3/5-5~-5~~-------|-------------------|
Chorus
|-----5------3------0------0------5------0------1------1-----|
|-----5------3------0------0------5------0------1------1-----|
|-----5------4------2------2------5------2------2------2-----|
|--7------5------2------2------7------2------3------3--------|
|--7------5------2------2------7------2------3------3--------|
|--7------5------2------2------7------2------3------3--------|

Intro/pre verse again
Verse again
Lead before chorus
E|-----------------|-------------------|
B|-----------------|-------------------|
G|7h9p7~~~~~-------|-12tp--------------|
D|-----------------|-------------------|
A|-----------------|-------------------|
D|-----------------|-------------------|

Chorus again
Intro/pre verse again
E|------------------------------------|
B|------------------------------------|
G|------------------------------------|
D|-/7~--------------------------------| this notes lands on the last chord
A|------------------------------------| of the pre verse
D|------------------------------------|

Bridge
E|5-----------------------------------|
B|5-----------------------------------|
G|5-----------------------------------| Random a minor chord then the bass
D|7-----------------------------------| comes in
A|------------------------------------|
D|------------------------------------|

E|-------------|-----------------------|
B|-------10----|-----------------------|
G|----------9--|-----------------------|
D|-7----------7|-----------------------| this runs into the chorus again
A|----0--------|-----------------------|
D|-------------|-----------------------|

chorus again

Solo(with backing as chorus)
E|------------------------------------|
B|------------------------------------|
G|------------------------------------|
D|7~~---------------------------------| (this note is just before the solo
A|------------------------------------|  just let this note feedback A LITTLE)
D|------------------------------------|

The actaul solo
E|---------------------|------------------|
B|---------------------|------------------|
G|------5--------------|------------------|
D|5h7~----7---5h7--5-7-|-5h7--5-7-0-------|h2~~~~ keep playing this until
A|---------------------|------------------| the song fades out
D|---------------------|------------------|

Thanks i think most of the tab is spot on and plz rate and comment

h=hammer on
p=pull off
tp=tremolo picking
~=vibrato
/=slide
Tap to rate this tab
# A B C D E F G H I J K L M N O P Q R S T U V W X Y Z