Song name
# A B C D E F G H I J K L M N O P Q R S T U V W X Y Z

Papa Roach - Lifeline tab

---------------------------------------------------------------------------
                            Lifeline - Papa Roach
---------------------------------------------------------------------------

Tabbed by: glade8316

Email: gladenielson@yahoo.com

Tuning: D,A,D,G,B,E



intro

E|---------------------------------------------------------------------|X4
B|---------------------------------------------------------------------|
G|---------------------------------------------------------------------|
D|------12-0-0-12-0-0-12-0-11-0-0-11-0-0-11-0-16-0-0-16-0-0-16-0-------|
A|---------------------------------------------------------------------|
D|---------------------------------------------------------------------|

E|---------------------------------------------------------------------|X1
B|---------------------------------------------------------------------|
G|---------------------------------------------------------------------|
D|------12-0-0-12-0-0-12-0-11-0-0-11-0-0-11-0-17-0-0-17-0-0-17-0-------|
A|---------------------------------------------------------------------|
D|---------------------------------------------------------------------|

E|---------------------------------------------------------------------|X1
B|---------------------------------------------------------------------|
G|---------------------------------------------------------------------|
D|----12-0-0-12-0-0-12-0-11-0-0-11-0-0-11-0-16-0-0-16-0-0-16-0--11\----|
A|---------------------------------------------------------------------|
D|---------------------------------------------------------------------|




pre-verse

E|----------------------------------------------------------------------|
B|----------------------8-7---------------------------------------------|
G|-------7~~~~----777~--x-x-----------------------------------7~~-------|
D|-------7~~~~----777~--x-x-5~~~~----555~--5-4-2~~~~---7~~~~--7~~-------|
A|-------5~~~~----555~--5-5-5~~~~----555~--5-4-2~~~~---7~~~~--5~~-------|
D|--------------------------5~~~~----555~--5-4-2~~~~---7~~~~------------|

E|----------------------|
B|----------------------|
G|---7777666644442222---|
D|---xxxxxxxxxxxxxxxx---|
A|---5555444422220000---|
D|----------------------|




verse 1

E|----------------------------------------------------------------------|
B|----------------------------------------------------------------------|
G|--7~-xx7~-xx7xx7~-xx7~-xx7xx------------------------------------------|
D|--7~-xx7~-xx7xx7~-xx7~-xx7xx5~-xx5~-xx5xx5~-xx5~-xx5xx2~-xx2~-xx2xx---|
A|--5~-xx5~-xx5xx5~-xx5~-xx5xx5~-xx5~-xx5xx5~-xx5~-xx5xx2~-xx2~-xx2xx---|
D|----------------------------5~-xx5~-xx5xx5~-xx5~-xx5xx2~-xx2~-xx2xx---|




pre-chorus

E|------------------------------------------------------|
B|------------------------------------------------------|
G|----------7777777777777777-777799991111111112121212---|
D|---7~~~~--7777777777777777-xxxxxxxx-x-x-x-x-x-x-x-x---|
A|---7~~~~--5555555555555555-55557777-9-9-9-910101010---|
D|---7~~~~----------------------------------------------|




chorus

E|---------------------------------------------------------------------|
B|---------------------------------------------------------------------|
G|---7-7-7-7-7-7-7-7-7-7-7-7-------------------------------------------|
D|---7-7-7-7-7-7-7-7-7-7-7-7-7-7-7-7-5-5-5-5-5-5-5-5-5-5-5-5-5-5-5-5---|
A|---5-5-5-5-5-5-5-5-5-5-5-5-7-7-7-7-5-5-5-5-5-5-5-5-5-5-5-5-5-5-5-5---|
D|---------------------------7-7-7-7-5-5-5-5-5-5-5-5-5-5-5-5-5-5-5-5---|

E|-----------------------------------------------------|
B|-----------------------------------------------------|
G|-----------------------------------7-7-7-7-7-7-7-7---|
D|---2-2-2-2-2-2-2-2-7-7-7-7-7-7-7-7-7-7-7-7-7-7-7-7---|
A|---2-2-2-2-2-2-2-2-7-7-7-7-7-7-7-7-5-5-5-5-5-5-5-5---|
D|---2-2-2-2-2-2-2-2-7-7-7-7-7-7-7-7-------------------|

E|------------------------------|
B|------------------------------|
G|---121212121111111199997777---|
D|----x-x-x-x-x-x-x-xxxxxxxxx---|
A|---10101010-9-9-9-977775555---|
D|------------------------------|




verse 2

E|----------------------------------------------------------------------|
B|----------------------------------------------------------------------|
G|--7~-xx7~-xx7xx7~-xx7~-xx7xx------------------------------------------|
D|--7~-xx7~-xx7xx7~-xx7~-xx7xx5~-xx5~-xx5xx5~-xx5~-xx5xx2~-xx2~-xx2xx---|
A|--5~-xx5~-xx5xx5~-xx5~-xx5xx5~-xx5~-xx5xx5~-xx5~-xx5xx2~-xx2~-xx2xx---|
D|----------------------------5~-xx5~-xx5xx5~-xx5~-xx5xx2~-xx2~-xx2xx---|




pre-chorus

E|------------------------------------------------------|
B|------------------------------------------------------|
G|----------7777777777777777-777799991111111112121212---|
D|---7\-----7777777777777777-xxxxxxxx-x-x-x-x-x-x-x-x---|
A|---7\-----5555555555555555-55557777-9-9-9-910101010---|
D|---7\-------------------------------------------------|




chorus

E|---------------------------------------------------------------------|
B|---------------------------------------------------------------------|
G|---7-7-7-7-7-7-7-7-7-7-7-7-------------------------------------------|
D|---7-7-7-7-7-7-7-7-7-7-7-7-7-7-7-7-5-5-5-5-5-5-5-5-5-5-5-5-5-5-5-5---|
A|---5-5-5-5-5-5-5-5-5-5-5-5-7-7-7-7-5-5-5-5-5-5-5-5-5-5-5-5-5-5-5-5---|
D|---------------------------7-7-7-7-5-5-5-5-5-5-5-5-5-5-5-5-5-5-5-5---|

E|-----------------------------------------------------|
B|-----------------------------------------------------|
G|-----------------------------------7-7-7-7-7-7-7-7---|
D|---2-2-2-2-2-2-2-2-7-7-7-7-7-7-7-7-7-7-7-7-7-7-7-7---|
A|---2-2-2-2-2-2-2-2-7-7-7-7-7-7-7-7-5-5-5-5-5-5-5-5---|
D|---2-2-2-2-2-2-2-2-7-7-7-7-7-7-7-7-------------------|

E|------------------------------|
B|------------------------------|
G|---777799991111111112121212---|
D|---xxxxxxxx-x-x-x-x-x-x-x-x---|
A|---55557777-9-9-9-910101010---|
D|------------------------------|

E|---------------------------------------------------------------------|
B|---------------------------------------------------------------------|
G|---7-7-7-7-7-7-7-7-7-7-7-7-------------------------------------------|
D|---7-7-7-7-7-7-7-7-7-7-7-7-7-7-7-7-5-5-5-5-5-5-5-5-5-5-5-5-5-5-5-5---|
A|---5-5-5-5-5-5-5-5-5-5-5-5-7-7-7-7-5-5-5-5-5-5-5-5-5-5-5-5-5-5-5-5---|
D|---------------------------7-7-7-7-5-5-5-5-5-5-5-5-5-5-5-5-5-5-5-5---|

E|-----------------------------------------------------|
B|-----------------------------------------------------|
G|-----------------------------------7-7-7-7-7-7-7-7---|
D|---2-2-2-2-2-2-2-2-7-7-7-7-7-7-7-7-7-7-7-7-7-7-7-7---|
A|---2-2-2-2-2-2-2-2-7-7-7-7-7-7-7-7-5-5-5-5-5-5-5-5---|
D|---2-2-2-2-2-2-2-2-7-7-7-7-7-7-7-7-------------------|

E|------------------------------|
B|------------------------------|
G|---121212121111111199997777---|
D|----x-x-x-x-x-x-x-xxxxxxxxx---|
A|---10101010-9-9-9-977775555---|
D|------------------------------|




brigde

E|---------------------------------------------------------------------|
B|---------------------------------------------------------------------|
G|---4-4-4-4-4-4/7---------------------------------11/12\11--9/11--7---|
D|---4-4-4-4-4-4/7--7-7-7-7-7-7/9--5-5-5-5-5-5-5-5--x--x-x---x-x---x---|
A|---2-2-2-2-2-2/5--7-7-7-7-7-7/9--5-5-5-5-5-5-5-5--9/10\9---7/9---5---|
D|------------------7-7-7-7-7-7/9--5-5-5-5-5-5-5-5---------------------|

E|---------------------------------------------------------------------|
B|---------------------------------------------------------------------|
G|---4-4-4-4-4-4/7---------------------------------11/12\11--9/11-14---|
D|---4-4-4-4-4-4/7--7-7-7-7-7-7/9--5-5-5-5-5-5-5-5--x--x-x---x-x---x---|
A|---2-2-2-2-2-2/5--7-7-7-7-7-7/9--5-5-5-5-5-5-5-5--9/10\9---7/9--12---|
D|------------------7-7-7-7-7-7/9--5-5-5-5-5-5-5-5---------------------|




intro again

E|---------------------------------------------------------------------|X2
B|---------------------------------------------------------------------|
G|---------------------------------------------------------------------|
D|------12-0-0-12-0-0-12-0-11-0-0-11-0-0-11-0-16-0-0-16-0-0-16-0-------|
A|---------------------------------------------------------------------|
D|---------------------------------------------------------------------|

E|---------------------------------------------------------------------|
B|---------------------------------------------------------------------|
G|---------------------------------------------------------------------|
D|------12-0-0-12-0-0-12-0-11-0-0-11-0-0-11-0-17-0-0-17-0-0-17-0-------|
A|---------------------------------------------------------------------|
D|---------------------------------------------------------------------|

E|---------------------------------------------------------------------|
B|---------------------------------------------------------------------|
G|---------------------------------------------------------------------|
D|----12-0-0-12-0-0-12-0-11-0-0-11-0-0-11-0-16-0-0-16-0-0-16-0--11\----|
A|---------------------------------------------------------------------|
D|---------------------------------------------------------------------|




last chorus

E|---------------------------------------------------------------------|
B|---------------------------------------------------------------------|
G|---------------------------------------------------------------------|
D|---5-5-5-5-5-5-5-5-5-5-5-5-5-5-5-5-2-2-2-2-2-2-2-2-7-7-7-7-7-7-7-7---|
A|---5-5-5-5-5-5-5-5-5-5-5-5-5-5-5-5-2-2-2-2-2-2-2-2-7-7-7-7-7-7-7-7---|
D|---5-5-5-5-5-5-5-5-5-5-5-5-5-5-5-5-2-2-2-2-2-2-2-2-7-7-7-7-7-7-7-7---|

E|----------------------------------------------|
B|----------------------------------------------|
G|---7-7-7-7-7-7-7-7-777799991111111112121212---|
D|---7-7-7-7-7-7-7-7-xxxxxxxx-x-x-x-x-x-x-x-x---|
A|---5-5-5-5-5-5-5-5-55557777-9-9-9-910101010---|
D|----------------------------------------------|

E|---------------------------------------------------------------------|
B|---------------------------------------------------------------------|
G|---7-7-7-7-7-7-7-7-7-7-7-7-7-7-7-7-4-4-4-4-4-4-4-4-4-4-4-4-4-4-4-4---|
D|---7-7-7-7-7-7-7-7-7-7-7-7-7-7-7-7-4-4-4-4-4-4-4-4-4-4-4-4-4-4-4-4---|
A|---5-5-5-5-5-5-5-5-5-5-5-5-5-5-5-5-2-2-2-2-2-2-2-2-2-2-2-2-2-2-2-2---|
D|---------------------------------------------------------------------|

E|---------------------------------------------------------------------|
B|---------------------------------------------------------------------|
G|-----------------------------------7-7-7-7-7-7-7-7-7-7-7-7-----------|
D|---2-2-2-2-2-2-2-4-5-5-5-5-5-5-5-5-7-7-7-7-7-7-7-7-7-7-7-7---11\-----|
A|---2-2-2-2-2-2-2-4-5-5-5-5-5-5-5-5-5-5-5-5-5-5-5-5-5-5-5-5-----------|
D|---2-2-2-2-2-2-2-4-5-5-5-5-5-5-5-5-----------------------------------|




outro

E|---------------------------------------------------------------------|X2
B|---------------------------------------------------------------------|
G|---------------------------------------------------------------------|
D|------12-0-0-12-0-0-12-0-11-0-0-11-0-0-11-0-16-0-0-16-0-0-16-0-------|
A|---------------------------------------------------------------------|
D|---------------------------------------------------------------------|

E|---------------------------------------------------------------------|
B|---------------------------------------------------------------------|
G|---------------------------------------------------------------------|
D|------12-0-0-12-0-0-12-0-11-0-0-11-0-0-11-0-17-0-0-17-0-0-17-0-------|
A|---------------------------------------------------------------------|
D|---------------------------------------------------------------------|

E|------------------------------------------------------------------------|
B|------------------------------------------------------------------------|
G|------------------------------------------------------------------------|
D|----12-0-0-12-0-0-12-0-11-0-0-11-0-0-11-0-16-0-0-16-0-0-16-0--11\--0~---|
A|-------------------------------------------------------------------0~---|
D|-------------------------------------------------------------------0~---|



well i hope you like it, i know its nowhere close to 100% but
i think its alittle better then a couple of the other tabs no
affence to anybody, the timing isnt perfect either, any corrections
please let me know
Tap to rate this tab
 
# A B C D E F G H I J K L M N O P Q R S T U V W X Y Z