Song name
# A B C D E F G H I J K L M N O P Q R S T U V W X Y Z

Papa Roach - March Out Of The Darkness tab

Title: March Out of the Darkness
Band: Papa Roach
Album: Metamorphosis

Solo
e|---------------------------------------------------------------------|
B|---------------------------------------------------------------------|
G|---------------------------------12-9--9v-9v-9v-9v--9-7-9br-9-7------|
D|--------7-7-7--10-10-10-12-12-12-------------------------------10-9--|
A|--8-8-8--------------------------------------------------------------|
E|---------------------------------------------------------------------|

e|--------------------------------------------------------------------------|
B|---------------------------------------9--10----------12-10-----12-12-10--|
G|---------------------------------12-9--9--9--(9)-(9)--9--9--(9)-9--9--9---|
D|--------7-7-7--10-10-10-12-12-12------------------------------------------|
A|--8-8-8-------------------------------------------------------------------|
E|--------------------------------------------------------------------------|

------------|
------------|
--9-7-------|
------10-9--|
------------|
------------|

e|---------------------------------------------------------------------|
B|------------------------------------------------12-12h13p12---12-----|
G|---------------------------------12-9--12h14-14-------------14-------|
D|--------7-7-7--10-10-10-12-12-12-------------------------------------|
A|--8-8-8--------------------------------------------------------------|
E|---------------------------------------------------------------------|

--------------|
--------------|
--12-10-------|
--------10-9--|
--------------|
--------------|

e|---------------------------------------------------------------|
B|--------------------------------------------10-8--12-10--15\---|
G|---------------------------------12-9--9-7---------------------|
D|--------7-7-7--10-10-10-12-12-12-------------------------------|
A|--8-8-8--------------------------------------------------------|
E|---------------------------------------------------------------|

Write comments and corrections below.
Tap to rate this tab
 
# A B C D E F G H I J K L M N O P Q R S T U V W X Y Z