Song name
# A B C D E F G H I J K L M N O P Q R S T U V W X Y Z

Papa Roach - Scars tab

Intro

Eb----------------------------------|-------------------------------------|
Bb----------------------------------|-------------------------------------|
Gb-----------------7----------------|--12-------------7-------------------|
Db--10------5------7------3---------|--12------5------7------3---5--5-----|
Ab--10------5------5------3---------|--10------5------5------3---5--5-----|
Db--10------5-------------3---------|--10------5-------------3---5--5-----|

Verse

Eb--------------------------------------------------------------|
Bb--------------------------------------------------------------|
Gb----------------------5-4---------7-5-------------9-7---------|
Db--7-10-9--------2---------5-----3-----7----------5---9--------|
Ab--7-----10-----2----------------3----------------5------------|
Db--7----------------2------------3----------------5------------|  (2X)

Chorus

Eb----------------------------------------------------|
Bb----------------------------------------------------|
Gb-------------------------7--------------------------|
Db--10--------5----------7-X8----3--------5-----------|
Ab--10-X8----5--X8----5--------3-X4----5-X4-----------|
Db--10--------5--------------------3--------5---------|  (2X)

Verse

Eb--------------------------------------------------------------|
Bb--------------------------------------------------------------|
Gb----------------------5-4---------7-5-------------9-7---------|
Db--7-10-9--------2---------5-----3-----7----------5---9--------|
Ab--7-----10-----2----------------3----------------5------------|
Db--7----------------2------------3----------------5------------|  (2X)

Riffs after this verse ^^^

Eb---------------------------------------|
Bb---------------------------------------|
Gb--12-------------7---------------------|
Db--12------5------7------3---5--5-------|
Ab--10------5------5------3---5--5-------|
Db--10------5-------------3---5--5-------|

Eb-------------------------------------------------------|
Bb-------------------------------------------------------|
Gb----------------------7-7------------------------------|
Db--10-10------5-5------7-7------3-3-3--5--5--5----------|
Ab--10-10------5-5------5-5------3-3-3--5--5--5----------|
Db--10-10------5-5---------------3-3-3--5--5--5----------|

Eb---------------------------------------------------|
Bb---------------------------------------------------|
Gb---------------------------------------------------|
Db-------------------------------------------------3-|
Ab---------------------------------(7)-------------3-|
Db-(10)-X16-----(5)-X16-----(5)-X16----------------3-|
Palm Muted ******************

Chorus

Eb-------------------------------------------------------------------------------------|
Bb-------------------------------------------------------------------------------------|
Gb---------------------7---------------------------------------------------------------|
Db--10--------5--------7-X8-----3--------5---------------------------------------------|
Ab--10-X8-----5--X8----5--------3-X4-----5-X4------------------------------------------|
Db--10--------5-----------------3--------5--------------  (4X)   then end with  Db--10-|
      Ab--10
      Db--10
Tap to rate this tab
 
# A B C D E F G H I J K L M N O P Q R S T U V W X Y Z