Song name
# A B C D E F G H I J K L M N O P Q R S T U V W X Y Z

Papa Roach - Kick In The Teeth tab

NOTE: This is my first tab. Play the chords in 6's during the verse, chorus, and bridge 
than 4's like the tab says. Listen to the song if you have trouble with it.

Verse
e|--------------------------------------------------------------|
B|--------------------------------------------------------------|
G|--------------------------------------------------------------|
D|-77777777777777777---33333333---55555555--6/------------------|
A|-77777777777777777---33333333---55555555--6/------------------|
D|-77777777777777777---33333333---55555555--6/------------------|

Chorus

Guitar 1 during the Chorus
e|--------------------------------------------------------------|
B|--------------------------------------------------------------|
G|-14-14-14-14--12-12-12-12--11-11-11-11--12-12-12-12-----------|
D|--------------------------------------------------------------| X2
A|-12-12-12-12--10-10-10-10--9--9--9--9---10-10-10-10-----------|
D|--------------------------------------------------------------|

e|--------------------------------------------------------------|
B|--------------------------------------------------------------|
G|-14-14-14-14--12-12-12-12--11-11-11-11--10-10-10-10-----------|
D|--------------------------------------------------------------|
A|-12-12-12-12--10-10-10-10--9--9--9--9---8--8--8--8------------|
D|--------------------------------------------------------------|

e|--------------------------------------------------------------|
B|--------------------------------------------------------------|
G|-14-14-14-14--12-12-12-12--11-11-11-11--13-13-13-13-----------|
D|--------------------------------------------------------------|
A|-12-12-12-12--10-10-10-10--9--9--9--9---11-11-11-11-----------|
D|--------------------------------------------------------------|

Guitar 2 during the Chorus
e|--------------------------------------------------------------|
B|--------------------------------------------------------------|
G|--------------------------------------------------------------|
D|-77777777777--000000022--333333333--2222222222--55555--66666--|
A|-77777777777--000000022--333333333--2222222222--55555--66666--|
D|-77777777777--000000022--333333333--2222222222--55555--66666--|

Post Chorus
e|--------------------------------------------------------------|
B|--------------------------------------------------------------|
G|--------------------------------------------------------------|
D|-7/--xx-xxx-xxx-xxx---7/--xx-xxx-xxx-xxx----------------------|
A|-7/--xx-xxx-xxx-xxx---7/--xx-xxx-xxx-xxx----------------------|
D|-7/--xx-xxx-xxx-xxx---7/--xx-xxx-xxx-xxx----------------------|


Verse 2
e|--------------------------------------------------------------|
B|--------------------------------------------------------------|
G|--------------------------------------------------------------|
D|-77777777777777777---33333333---------------------------------|
A|-77777777777777777---33333333---------------------------------|
D|-77777777777777777---33333333---------------------------------|

e|--------------------------------------------------------------|
B|--------------------------------------------------------------|
G|--------------------------------------------------------------|
D|-77777777777777777---33333333---55555555--6/------------------|
A|-77777777777777777---33333333---55555555--6/------------------|
D|-77777777777777777---33333333---55555555--6/------------------|

(Chorus)
(Post Chorus)

Bridge
e|----------------------------------------------------------------------------------------------|
B|----------------------------------------------------------------------------------------------|
G|-------14141414-------------10101010---------------7777----------------10101010-9999-13131313-|
D|-7777------------X2-3333--------------X2-0000-------------X2-3333-----------------------------|
A|-7777--12121212-----3333----8-8-8-8------0000------5555------3333------8-8-8-8--7777-11111111-|
D|-7777---------------3333-----------------0000----------------3333-----------------------------|

Solo

Guitar 1 during the Solo
e|----------------------------------------------------------------------------------------------|
B|-13---12---10---8----X2-10-8---10-10~----10-8---12b-12~-12-10-8---10-8-10~--12~--13~--15~-----|
G|----9----9----9---9----------9----------------9-----------------9-----------------------------|
D|----------------------------------------------------------------------------------------------|
A|----------------------------------------------------------------------------------------------|
D|----------------------------------------------------------------------------------------------|

Guitar 2 during the Solo
e|--------------------------------------------------------------|
B|--------------------------------------------------------------|
G|--------------------------------------------------------------|
D|-77777777777--000000022--333333333--2222222222--55555--66666--|
A|-77777777777--000000022--333333333--2222222222--55555--66666--|
D|-77777777777--000000022--333333333--2222222222--55555--66666--|

End of Solo
e|------------|
B|------------|
G|------------|
D|-7/---------|
A|-7/---------|
D|-7/---------|

(Rest)
(Chorus)
(Post Chorus X2)

End
e|------------|
B|------------|
G|------------|
D|-x77~-------|
A|-x77~-------|
D|-x77~-------|
Tap to rate this tab
 
# A B C D E F G H I J K L M N O P Q R S T U V W X Y Z