Song name
# A B C D E F G H I J K L M N O P Q R S T U V W X Y Z

Papa Roach - Scars Live tab

Song Order:
1. Intro
2. Verse One
3. Chorus
4. Verse 2
5. Chorus
6. Verse 3
7. Bridge
8. Chorus
9. Outro


Intro: Let ring with distortion.

|---------------------------------------|
|---------------------------------------|
|---------------------------------------|
|9--------------------4-----------------|
|9--------------------4-----------------|
|9--------------------4-----------------|

|---------------------------------------|
|---------------------------------------|
|---------------------------------------|
|11-------------------2-----------------|
|11-------------------2-----------------|
|11-------------------2-----------------|

|---------------------------------------|
|---------------------------------------|
|---------------------------------------|
|9--------------------4-----------------|
|9--------------------4-----------------|
|9--------------------4-----------------|

|---------------------------------------|
|---------------------------------------|
|---------------------------------------|
|11-------------------2------4--4-------|
|11-------------------2------4--4-------|
|11-------------------2------4--4-------|

Verse One and Two:

|-------------------------------------------------|
|-------------------------------------------------|
|----------------4--3--------4--3--------4--3-----|
|-6--9--8--6--1--1--1--4--2--2--2--4--4--x--x--4--|
|-6--6--6--6--1--1--1--1--2--2--2--2--4--4--4--4--|
|-6--6--6--6--1--1--1--1--2--2--2--2--4--4--4--4--|

|-------------------------------------------------|
|-------------------------------------------------|
|----------------4--3--------4--3--------4--3-----|
|-6--9--8--6--1--1--1--4--2--2--2--4--4--x--x--4--|
|-6--6--6--6--1--1--1--1--2--2--2--2--4--4--4--4--|
|-6--6--6--6--1--1--1--1--2--2--2--2--4--4--4--4--|

Verse Three:

|------------------------------------------------|
|------------------------------------------------|
|---------------4--3--------4--3--------4--3-----|
|-6--9--8--6--1-------4--2--------4--4--------4--|
|-6-----------1----------2-----------4-----------|
|-6-----------1----------2-----------4-----------|

|------------------------------------------------|
|------------------------------------------------|
|---------------4--3--------4--3--------4--3-----|
|-6--9--8--6--1-------4--2--------4--4--------4--|
|-6-----------1----------2-----------4-----------|
|-6-----------1----------2-----------4-----------|



Chorus: (Those are elevens)

|---------------------------------------|
|---------------------------------------|
|---------------------------------------|
|-9-9-9-9-9-9-9-9-9--4-4-4-4-4-4-4-4-4--|
|-9-9-9-9-9-9-9-9-9--4-4-4-4-4-4-4-4-4--|
|-9-9-9-9-9-9-9-9-9--4-4-4-4-4-4-4-4-4--|

|-------------------------------------------------|
|-------------------------------------------------|
|-------------------------------------------------|
|-11-11-11-11-11-11-11-11-11--2-2-2-2-2-4-4-4-4-4-|
|-11-11-11-11-11-11-11-11-11--2-2-2-2-2-4-4-4-4-4-|
|-11-11-11-11-11-11-11-11-11--2-2-2-2-2-4-4-4-4-4-|

|---------------------------------------|
|---------------------------------------|
|---------------------------------------|
|-9-9-9-9-9-9-9-9-9--4-4-4-4-4-4-4-4-4--|
|-9-9-9-9-9-9-9-9-9--4-4-4-4-4-4-4-4-4--|
|-9-9-9-9-9-9-9-9-9--4-4-4-4-4-4-4-4-4--|

|-------------------------------------------------|
|-------------------------------------------------|
|-------------------------------------------------|
|-11-11-11-11-11-11-11-11-11--2-2-2-2-2-4-4-4-4-4-|
|-11-11-11-11-11-11-11-11-11--2-2-2-2-2-4-4-4-4-4-|
|-11-11-11-11-11-11-11-11-11--2-2-2-2-2-4-4-4-4-4-|

Bridge: * = palm mute

|-----------------------------
|-----------------------------
|-----------------------------
|-99999999-44444444-22222222/4
|-99999999-44444444-22222222/4
|-99999999-44444444-22222222/4
  ******** ******** ********

Outro:

|---------------------------------------|
|---------------------------------------|
|---------------------------------------|
|-9-9-9-9-9-9-9-9-9--4-4-4-4-4-4-4-4-4--|
|-9-9-9-9-9-9-9-9-9--4-4-4-4-4-4-4-4-4--|
|-9-9-9-9-9-9-9-9-9--4-4-4-4-4-4-4-4-4--|

|-------------------------------------------------|
|-------------------------------------------------|
|-------------------------------------------------|
|-11-11-11-11-11-11-11-11-11--2-2-2-2-2-4-4-4-4-4-|
|-11-11-11-11-11-11-11-11-11--2-2-2-2-2-4-4-4-4-4-|
|-11-11-11-11-11-11-11-11-11--2-2-2-2-2-4-4-4-4-4-|

|---------------------------------------|
|---------------------------------------|
|---------------------------------------|
|-9-9-9-9-9-9-9-9-9--4-4-4-4-4-4-4-4-4--|
|-9-9-9-9-9-9-9-9-9--4-4-4-4-4-4-4-4-4--|
|-9-9-9-9-9-9-9-9-9--4-4-4-4-4-4-4-4-4--|

Let the 9's at the end ring...highly distort the last note
(I prefer to slide down to add distortion at the end) 

|----------------------------------------------------------------|
|----------------------------------------------------------------|
|----------------------------------------------------------------|   
|-11-11-11-11-11-11-11-11-11--2-2-2-2-2-4-4-4-4-4--9-----9-----9\|
|-11-11-11-11-11-11-11-11-11--2-2-2-2-2-4-4-4-4-4--9-----9-----9\|
|-11-11-11-11-11-11-11-11-11--2-2-2-2-2-4-4-4-4-4--9-----9-----9\|

Tap to rate this tab
 
# A B C D E F G H I J K L M N O P Q R S T U V W X Y Z