Song name
# A B C D E F G H I J K L M N O P Q R S T U V W X Y Z

Papa Roach - Kick In The Teeth tab

Not 100% on this, but it's close
Verse:
e|---------------------------------------------------------------------------|
B|---------------------------------------------------------------------------|
G|---------------------------------------------------------------------------|
D|-77777777777777777---33333333---55555555--6--------------------------------|
A|-77777777777777777---33333333---55555555--6--------------------------------|
D|-77777777777777777---33333333---55555555--6--------------------------------|

Chorus:
(X2)
e|---------------------------------------------------------------------------|
B|---------------------------------------------------------------------------|
G|-14-14-14-14--12-12-12-12--11-11-11-11--12-12-12-12------------------------|
D|---------------------------------------------------------------------------|
A|-12-12-12-12--10-10-10-10--9--9--9--9--10-10-10-10-------------------------|
D|---------------------------------------------------------------------------|

e|---------------------------------------------------------------------------|
B|---------------------------------------------------------------------------|
G|-14-14-14-14--12-12-12-12--11-11-11-11--10-10-10-10--13-13-13-13-----------|
D|---------------------------------------------------------------------------|
A|-12-12-12-12--10-10-10-10--9--9--9--9---8--8--8--8---11-11-11-11-----------|
D|---------------------------------------------------------------------------|

Guitar 2 during chorus
e|---------------------------------------------------------------------------|
B|---------------------------------------------------------------------------|
G|---------------------------------------------------------------------------|
D|-77777777777--000000000--233333333--2222222222--5555555555-----------------|
A|-77777777777--000000000--233333333--2222222222--5555555555-----------------|
D|-77777777777--000000000--233333333--2222222222--5555555555-----------------|

Post-Chorus
e|---------------------------------------------------------------------------|
B|---------------------------------------------------------------------------|
G|---------------------------------------------------------------------------|
D|-7/--xxxxxxxxxx---7/--xxxxxxxxxxx------------------------------------------|
A|-7/--xxxxxxxxxx---7/--xxxxxxxxxxx------------------------------------------|
D|-7/--xxxxxxxxxx---7/--xxxxxxxxxxx------------------------------------------|

Verse 2
e|---------------------------------------------------------------------------|
B|---------------------------------------------------------------------------|
G|---------------------------------------------------------------------------|
D|-7777777777777777777---333333333-------------------------------------------|
A|-7777777777777777777---333333333-------------------------------------------|
D|-7777777777777777777---333333333-------------------------------------------|

e|---------------------------------------------------------------------------|
B|---------------------------------------------------------------------------|
G|---------------------------------------------------------------------------|
D|-7777777777777777777---333333333---55555555--6-----------------------------|
A|-7777777777777777777---333333333---55555555--6-----------------------------|
D|-7777777777777777777---333333333---55555555--6-----------------------------|

Chorus:
(X2)
e|---------------------------------------------------------------------------|
B|---------------------------------------------------------------------------|
G|-14-14-14-14--12-12-12-12--11-11-11-11--12-12-12-12------------------------|
D|---------------------------------------------------------------------------|
A|-12-12-12-12--10-10-10-10--9--9--9--9--10-10-10-10-------------------------|
D|---------------------------------------------------------------------------|

e|---------------------------------------------------------------------------|
B|---------------------------------------------------------------------------|
G|-14-14-14-14--12-12-12-12--11-11-11-11--10-10-10-10--13-13-13-13-----------|
D|---------------------------------------------------------------------------|
A|-12-12-12-12--10-10-10-10--9--9--9--9---8--8--8--8---11-11-11-11-----------|
D|---------------------------------------------------------------------------|

Post-Chorus
e|---------------------------------------------------------------------------|
B|---------------------------------------------------------------------------|
G|---------------------------------------------------------------------------|
D|-7/--xxxxxxxxxx---7/--xxxxxxxxxxx------------------------------------------|
A|-7/--xxxxxxxxxx---7/--xxxxxxxxxxx------------------------------------------|
D|-7/--xxxxxxxxxx---7/--xxxxxxxxxxx------------------------------------------|

Bridge(Idk if it's 100%)
e|---------------------------------------------------------------------------|
B|---------------------------------------------------------------------------|
G|-14141414---10101010---7777---10101010-9-13--------------------------------|
D|---------------------------------------------------------------------------|
A|-12121212---8-8-8-8----5555---8-8-8-8--7-11--------------------------------|
D|---------------------------------------------------------------------------|

Solo
e|---------------------------------------------------------------------------|
B|-13---12---10---8----X2-10-8---10-10~----10-8---12b-12~-12108-10~--12~-----|
G|----9----9----9---9--------------------------------------------------------|
D|---------------------------------------------------------------------------|
A|---------------------------------------------------------------------------|
D|---------------------------------------------------------------------------|



e|---------------------------------------------------------------------------|
B|-13~---15~-----------------------------------------------------------------|
G|---------------------------------------------------------------------------|
D|------------7/-------------------------------------------------------------|
A|------------7/-------------------------------------------------------------|
D|------------7/-------------------------------------------------------------|

Chorus, the post chorus.
End.
Tap to rate this tab
 
# A B C D E F G H I J K L M N O P Q R S T U V W X Y Z