Papa Roach - No Matter What tab

No Matter What by Papa Roach
From their album Time for Ahhihilation
Tuning: Drop d - low to high dADGBE
Lyrics at bottom

Tab key
~ Hold Note
x Palm mute
b bend
v vibrato
p pull off
h hammer on

Intro
1-----------------------------|
2------------------6------6---|
3-------------6------6------6-|
4-----11----8-----------------|
5---9-----6------6------6-----|
6-9---------------------------|

Verse
1-----------------------------|
2------------------6------6---|
3-------------6------6------6-|
4-----11--8-8----8------8-----|
5-9-9-----6------6------6-----|
6-9---------------------------|

Pre Chorus
1-----------------------------------|
2-----------------------------------|
3-4-4-4-4-4-4-4-4------6~~~-6-6-6-6-|
4-4-4-4-4-4-4-4-4-1~~~-6~~~-6-6-6-6-|
5-2-2-2-2-2-2-2-2-1~~~-4~~~-4-4-4-4-|
6-----------------1~~~--------------|

Chorus
1---------------------------------------------------------------------------|
2---------------------------------------------------------------------------|
3-----------------11-11-11-10-10-10-8-8-6-6-6-6-6-6-6-6-11-11-11-13-13-13-6-|
4-4-4-4-4-4-4-4-4-x--x--x--x--x--x--x-x-6-6-6-6-6-6-6-6-x--x--x--x--x--x--x-|
5-4-4-4-4-4-4-4-4-9--9--9--8--8--8--6-6-4-4-4-4-4-4-4-4-9--9--9--11-11-11-4-|
6-4-4-4-4-4-4-4-4-----------------------------------------------------------|

Post Chorus
1-----|
2-----|
3-8-8-|
4-8-8-|
5-6-6-|
6-----|

Verse 2
1-----------------------------|
2------------------6------6---|
3-------------6------6------6-|
4-----11--8-8----8------8-----|
5-9-9-----6------6------6-----|
6-9---------------------------|

Pre Chorus
1-----------------------------------|
2-----------------------------------|
3-4-4-4-4-4-4-4-4------6~~~-6-6-6-6-|
4-4-4-4-4-4-4-4-4-1~~~-6~~~-6-6-6-6-|
5-2-2-2-2-2-2-2-2-1~~~-4~~~-4-4-4-4-|
6-----------------1~~~--------------|

Chorus
1---------------------------------------------------------------------------|
2---------------------------------------------------------------------------|
3-----------------11-11-11-10-10-10-8-8-6-6-6-6-6-6-6-6-11-11-11-13-13-13-6-|
4-4-4-4-4-4-4-4-4-x--x--x--x--x--x--x-x-6-6-6-6-6-6-6-6-x--x--x--x--x--x--x-|
5-4-4-4-4-4-4-4-4-9--9--9--8--8--8--6-6-4-4-4-4-4-4-4-4-9--9--9--11-11-11-4-|
6-4-4-4-4-4-4-4-4-----------------------------------------------------------|

Solo
1---------------------------------------------------------------------------|
2-------------------------------------------------17b-16-14-----------------|
3------------------------------11-10----11b-10--------------15-15-13-11b-10-|
4-------13p11p9-13-15p13h15----------11--------11---------------------------|
5-13-16---------------------------------------------------------------------|
6---------------------------------------------------------------------------|

1-----------------------------------------------|
2-----------------------------------------------|
3-------11-10-11-13-11-13-15-13-15-16-15-16-18v-|
4-13--------------------------------------------|
5----13-----------------------------------------|
6-----------------------------------------------|

Bridge
1-------------------------------------------------------------------|
2-------------------------------------------------------------------|
3---------------------------------11-10------------13-11-10-6-6-6-6-|
4-1-1-1-1-1-1-1-1-4-4-4-4-4-4-4-4-------11-6-6-6-6----------6-6-6-6-|
5-1-1-1-1-1-1-1-1-4-4-4-4-4-4-4-4----------6-6-6-6----------4-4-4-4-|
6-1-1-1-1-1-1-1-1-4-4-4-4-4-4-4-4----------6-6-6-6------------------|

Pre Chorus 2
1------------------------------------------------|
2------------------------------------------------|
3----------6-6-6-6-6-6-6-6-11-11-11-13-13-13-6-6-|
4-4~~~~~~~-6-6-6-6-6-6-6-6-x--x--x--x--x--x--x-x-|
5-4~~~~~~~-4-4-4-4-4-4-4-4-9--9--9--11-11-11-4-4-|
6-4~~~~~~~---------------------------------------|

Chorus
1---------------------------------------------------------------------------|
2---------------------------------------------------------------------------|
3-----------------11-11-11-10-10-10-8-8-6-6-6-6-6-6-6-6-11-11-11-13-13-13-6-|
4-4-4-4-4-4-4-4-4-x--x--x--x--x--x--x-x-6-6-6-6-6-6-6-6-x--x--x--x--x--x--x-|
5-4-4-4-4-4-4-4-4-9--9--9--8--8--8--6-6-4-4-4-4-4-4-4-4-9--9--9--11-11-11-4-|
6-4-4-4-4-4-4-4-4-----------------------------------------------------------|

End Note
1-----------|
2-----------|
3----11~~~~-|
4----x~~~~~
5----9~~~~~-|
6-----------|

Song Order
Intro x1
Verse x4
Pre Chorus x1
Chorus x2
Post Chorus x1
Verse x2
Pre Chorus x1
Chorus x4
Solo x1
Bridge x1
Pre Chorus 2 x1
Chorus x4
End Note x1

LYRICS
I need you right here, by my side
You're everything I'm not in my life.
We're indestructable, we are untouchable
Nothing can take us down tonight
You are so beautiful, it should be criminal
that you could be mine.

And we will make it out alive
I'll promise you this love will never die!

No matter what, I got your back
I'll take a bullet for you if it comes to that
I swear to God that in the bitter end
We're gonna be the last ones standing

So believe me when I say, you're the one
They'll never forgive us for the things we've done

And we will make it out alive
I'll promise you this love will never die!

No matter what, I got your back
I'll take a bullet for you if it comes to that
I swear to God that in the bitter end
We're gonna be the last ones standing
We'll never fight, we'll never fade
I'll promise you forever and my soul today
No matter what until the bitter end
We're gonna be the last ones standing

And everybody said that we would never last,
And if they saw us now I bet they'd take it back
It doesn't matter what we do or what we say
Cause nothing matters anyway!

No matter what, I got your back
I'll take a bullet for you if it comes to that
I swear to God that in the bitter end
We're gonna be the last ones standing
We'll never fight (We'll never fight) We'll never fade (We'll never fade)
No matter what until the bitter end
We're gonna be the last ones standing
Tap to rate this tab
 
# A B C D E F G H I J K L M N O P Q R S T U V W X Y Z