Papa Roach - No Matter What tab

Intro/Verse 1
e|--------------------------------------------------|
B|----2-----4--------6---------6--------------------|
G|------------6---------6---------6-----------------|
D|--4-----------------------------------------------|
A|-2------4--------6---------6----------------------|
D|--------------------------------------------------|

Verse 2
e|--------------------------------------------------|
B|---6----------4----------2---------2--------------|
G|------6---------6---------------------------------|
D|-----------------------4--------4-----------------|
A|-6----------4---------2--------2------------------|
D|--------------------------------------------------|

Pre Chorus
e|------------------------------------------------|
B|------------------------------------------------|
G|-4~------6~-------------------------------------|
D|-4~--1~--6~--6~---------------------------------|
A|-2~--1~--4~--6~---------------------------------|
D|-----1~------4~---------------------------------|

Chorus 1
e|------------------------------------------------------------------------|
B|------------------------------------------------------------------------|
G|-------------------6666666666666666--------------------4444444444444444-|
D|-4444444444444444--6666666666666666--1111111111111111--4444444444444444-|
A|-4444444444444444--4444444444444444--1111111111111111--2222222222222222-|
D|-4444444444444444--------------------1111111111111111-------------------|

Post Chorus
e|----------|
B|----------|
G|-----88~--|
D|-1~--88~--|
A|-1~--66~--|
D|-1~-------|

(Intro/Verse1 x2)
(Pre Chorus)
(Chorus x2)
Solo (Guitar 2 only)
e|------------------------------------------------------------------------|
B|------------------------------------------------------------------------|
G|-------------------4444444444444444--------------------6666666666666666-|
D|-1111111111111111--4444444444444444--4444444444444444--6666666666666666-|
A|-1111111111111111--2222222222222222--4444444444444444--4444444444444444-|
D|-1111111111111111--------------------4444444444444444-------------------|

Bridge
e|------------------------------------------------------------------------|
B|------------------------------------------------------------------------|
G|-------------------3333333333333333--4444444444444444--6666666666666666-|
D|-1111111111111111--3333333333333333--4444444444444444--6666666666666666-|
A|-1111111111111111--1111111111111111--2222222222222222--4444444444444444-|
D|-1111111111111111-------------------------------------------------------|

Prechorus 
Chorus
Tap to rate this tab
 
# A B C D E F G H I J K L M N O P Q R S T U V W X Y Z