Papa Roach - Kick In The Teeth tab

-------------------------------------------------------------------------------
			     SONG NAME - Papa Roach
-------------------------------------------------------------------------------
Tabbed by:jordanrocker2
Email:

Tuning:standard

e|---8----7----5------------------8----7----5--------------------------------|
B|-----5~---5~---5~---8---5~--------5~---5~---5~---8---5~------10p8---10-----|
G|------------------------------------------------------------------9--------|
D|---------------------------------------------------------------------------|
A|---------------------------------------------------------------------------|
E|---------------------------------------------------------------------------|

e|---------------------------------------------------------------------------|
B|---10p8---10/12-12-12------12brp10---101010101010-121212121212-131313131313|
G|--------9--------------------------12--------------------------------------|
D|---------------------------------------------------------------------------|
A|---------------------------------------------------------------------------|
E|---------------------------------------------------------------------------|

e|---------------------------------------------------------------------------|
B|-151515151515-17\----------------------------------------------------------|
G|---------------------------------------------------------------------------|
D|---------------------------------------------------------------------------|
A|---------------------------------------------------------------------------|
E|---------------------------------------------------------------------------|
Tap to rate this tab
 
# A B C D E F G H I J K L M N O P Q R S T U V W X Y Z